Oops, an error
Loading. Please wait.

I Can Tell Tab

ver5
ver5

Solo

Interactive

More versions @911Tabs.com
7,606 views 3 this week
4 commentsread comments
1 2 3 4 5
accurate
x 5
Autoscroll
+/-
esc
set tempo
stop
Contributor
Difficulty
intermediate
Hey! There's an official Ultimate Guitar app which is ideal
for learning songs when you're away from computer. Get the app
WARNING: You are trying to view
                                    content from Ultimate-Guitar.com
                                    in an unauthorized application,
                                    which is prohibited.

                                    Please use an official Ultimate
                                    Guitar Tabs application for iPhone,
                                    iPad or Android to access legitimate
                                    chords, guitar, bass, and drum tabs
                                    from Ultimate-Guitar.com database.

                                    Type "ultimate guitar tabs" in Apple
                                    App Store's or Android Market's
                                    search to find the application.
 _______________________
|                       | SONG:      I CAN TELL
|       SAOSIN          | ALBUM:     (NOT RELEASED IN ALBUM)
|_______________________| TABBED BY: ibnzplayer0 (label_Sk8er1@yahoo.com)
 ______________________
| . = PALM MUTE        |
| ~ = LET NOTE RING    |   *NOTE* THIS IS HOW ME AND MY FRIEND PLAY IT
| / = SLIDE UP         |
| V = NATURAL HARMONIC |
| + = TIED NOTE        |
| b = BEND NOTE        |
|<> = HARMONIC         |
|p/h= pulloff/hammeron |
| X = MUTED NOT        |
|______________________|
TUNING : C G C F A D
2 GUITARS
Q = 173
__________________________________________________________________________

[INTRO]
GUITAR 1
|-----------------|
|-----------------|
|-----------------|
|-x-x-x-x-x-x-x-x-|
|-x-x-x-x-x-x-x-x-|
|-x-x-x-x-x-x-x-x-|
|                 |
GUITAR 2          |
|-----------------|
|-----------------|
|-----------------|
|-x-x-x-x-x-x-x-x-|
|-x-x-x-x-x-x-x-x-|
|-x-x-x-x-x-x-x-x-|

|-------------------------|---------------------|
|-------------------------|---------------------|
|-11-11-11-11-11-11-11-11-|-9-9-9-9/14-14-14-14-|
|--x--x--x--x--x--x--x--x-|-x-x-x-x/-x--x--x--x-|
|--9--9--9--9--9--9--9--9-|-7-7-7-7/12-12-12-12-|
|-------------------------|---------------------|
|                                               |
|-------------------------|---------------------|
|-------------------------|---------------------|
|-------------------------|---------------------|
|--9--9--9--9--9--9--9--9-|-9-9-9-9--9--9--9--9-|
|--9--9--9--9--9--9--9--9-|-9-9-9-9--9--9--9--9-|
|--9--9--9--9--9--9--9--9-|-9-9-9-9--9--9--9--9-|



|-------------------------|-------------------------|
|-------------------------|-------------------------|
|-11-11-11-11-11-11-11-11-|--9--9--9--9/14-14-14-14-|
|--x--x--x--x--x--x--x--x-|--x--x--x--x/-x--x--x--x-|
|--9--9--9--9--9--9--9--9-|--7--7--7--7/12-12-12-12-|
|-------------------------|-------------------------|
|                                                   |
|-------------------------|-------------------------|
|-------------------------|-------------------------|
|-------------------------|-------------------------|
|-12-12-12-12-12-12-12-12-|-12-12-12-12-12-12-12-12-|
|-12-12-12-12-12-12-12-12-|-12-12-12-12-12-12-12-12-|
|-12-12-12-12-12-12-12-12-|-12-12-12-12-12-12-12-12-|



|-------------------------|-------------------------|
|-------------------------|-------------------------|
|-11-11-11-11-12-12-11-11-|-12-12-12-12-11-11-11-11-|
|--x--x--x--x--x--x--x--x-|--x--x--x--x--x--x--x--x-|
|--9--9--9--9-10-10-10-10-|-10-10-10-10--9--9--9--9-|
|-------------------------|-------------------------|
|                                                   |
|-------------------------|-------------------------|
|-------------------------|-------------------------|
|-------------------------|-------------------------|
|--5--5--5--5--5--5--5--5-|--5--5--5--5--5--5--5--5-|
|--5--5--5--5--5--5--5--5-|--5--5--5--5--5--5--5--5-|
|--5--5--5--5--5--5--5--5-|--5--5--5--5--5--5--5--5-|


|-----------------|-----------------|
|-----------------|-----------------|
|-9-9-9-9-9-9-9-9-|-9~~~~~~~~~------|
|-x-x-x-x-x-x-x-x-|-x~~~~~~~~~------|
|-7-7-7-7-7-7-7-7-|-7~~~~~~~~~5p4h5-|
|-----------------|-----------------|
|                                   |
|-----------------|-----------------|
|-----------------|-7-5-5-5-5-------|
|-----------------|-----------7p6h7-|
|-7-7-7-7-7-7-7-7-|-----------------|
|-7-7-7-7-7-7-7-7-|-----------------|
|-7-7-7-7-7-7-7-7-|-----------------|


|-------------------------|---------------------|
|-------------------------|---------------------|
|-11-11-11-11-11-11-11-11-|-9-9-9-9/14-14-14-14-|
|--x--x--x--x--x--x--x--x-|-x-x-x-x/-x--x--x--x-|
|--9--9--9--9--9--9--9--9-|-7-7-7-7/12-12-12-12-|
|-------------------------|---------------------|
|                                               |
|-------------------------|---------------------|
|-------------------------|---------------------|
|-------------------------|---------------------|
|--9--9--9--9--9--9--9--9-|-9-9-9-9--9--9--9--9-|
|--9--9--9--9--9--9--9--9-|-9-9-9-9--9--9--9--9-|
|--9--9--9--9--9--9--9--9-|-9-9-9-9--9--9--9--9-|



|-------------------------|-------------------------|
|-------------------------|-------------------------|
|-11-11-11-11-11-11-11-11-|--9--9--9--9/14-14-14-14-|
|--x--x--x--x--x--x--x--x-|--x--x--x--x/-x--x--x--x-|
|--9--9--9--9--9--9--9--9-|--7--7--7--7/12-12-12-12-|
|-------------------------|-------------------------|
|                                                   |
|-------------------------|-------------------------|
|-------------------------|-------------------------|
|-------------------------|-------------------------|
|-12-12-12-12-12-12-12-12-|-12-12-12-12-12-12-12-12-|
|-12-12-12-12-12-12-12-12-|-12-12-12-12-12-12-12-12-|
|-12-12-12-12-12-12-12-12-|-12-12-12-12-12-12-12-12-|



|-------------------------|-------------------------|
|-------------------------|-------------------------|
|-11-11-11-11-12-12-11-11-|-12-12-12-12-11-11-11-11-|
|--x--x--x--x--x--x--x--x-|--x--x--x--x--x--x--x--x-|
|--9--9--9--9-10-10-10-10-|-10-10-10-10--9--9--9--9-|
|-------------------------|-------------------------|
|                                                   |
|-------------------------|-------------------------|
|-------------------------|-------------------------|
|-------------------------|-------------------------|
|--5--5--5--5--5--5--5--5-|--5--5--5--5--5--5--5--5-|
|--5--5--5--5--5--5--5--5-|--5--5--5--5--5--5--5--5-|
|--5--5--5--5--5--5--5--5-|--5--5--5--5--5--5--5--5-|


|-----------------|-----------------|
|-----------------|-----------------|
|-9-9-9-9-9-9-9-9-|-9~~~~~~~~~~~~~~~|
|-x-x-x-x-x-x-x-x-|-x~~~~~~~~~~~~~~~|
|-7-7-7-7-7-7-7-7-|-7~~~~~~~~~~~~~~~|
|-----------------|-----------------|
|                                   |           
|-----------------|---------5-------|
|-----------------|-----------------|
|-----------------|-7-9-6-7---7-6-7-|
|-7-7-7-7-7-7-7-7-|-----------------|
|-7-7-7-7-7-7-7-7-|-----------------|
|-7-7-7-7-7-7-7-7-|-----------------|


[VERSE]
|-----------------|-----------------|-----------------|-----------------|
|-7-7-7-7-7-7-7-7-|-7-7-7-7-7-7-7-7-|-6-6-6-6-6-6-6-6-|-6-6-6-6-6-6-6-6-|
|-----------------|-----------------|-----------------|-----------------|
|-----------------|-----------------|-----------------|-----------------|
|-----------------|-----------------|-----------------|-----------------|
|-----------------|-----------------|-----------------|-----------------|
|
|-----------------|-----------------|-----------------|-----------------|
|-----------------|-----------------|-----------------|-----------------|
|-----------------|-----------------|-----------------|-----------------|
|-9~~~~~~~~~~~~~~~|~~~~~~~~~~~~~~~~~|-7~~~~~~~~~~~~~~~|~~~~~~~~~~~~~~~~~|
|-9~~~~~~~~~~~~~~~|~~~~~~~~~~~~~~~~~|-7~~~~~~~~~~~~~~~|~~~~~~~~~~~~~~~~~|
|-9~~~~~~~~~~~~~~~|~~~~~~~~~~~~~~~~~|-7~~~~~~~~~~~~~~~|~~~~~~~~~~~~~~~~~|


|-----------------|-----------------|-----------------|-----------------|
|-7-7-7-7-7-7-7-7-|-7-9-9-9-9-7-7-7-|-6-6-6-6-6-6-6-6-|-6-7-7-7-7-6-4---|
|-----------------|-----------------|-----------------|-----------------|
|-----------------|-----------------|-----------------|-----------------|
|-----------------|-----------------|-----------------|-----------------|
|-----------------|-----------------|-----------------|-----------------|
|
|-----------------|-----------------|-----------------|-----------------|
|-----------------|-----------------|-----------------|-----------------|
|-7~~~~~~~~~~~~~~~|~~~~~~~~~~~~~~~~~|-----------------|-----------------|
|-5~~~~~~~~~~~~~~~|~~~~~~~~~~~~~~~~~|-7~~~~~~~~~~~~~~~|~~~~~~~~~~~~~~~~~|
|-5~~~~~~~~~~~~~~~|~~~~~~~~~~~~~~~~~|-7~~~~~~~~~~~~~~~|~~~~~~~~~~~~~~~~~|
|-5~~~~~~~~~~~~~~~|~~~~~~~~~~~~~~~~~|-7~~~~~~~~~~~~~~~|~~~~~~~~~~~~~~~~~|


|-----------------|-----------------|-----------------|-----------------|
|-7-7-7-7-7-7-7-7-|-7-7-7-7-7-7-7-7-|-6-6-6-6-6-6-6-6-|-6-6-6-6-6-6-6-6-|
|-----------------|-----------------|-----------------|-----------------|
|-----------------|-----------------|-----------------|-----------------|
|-----------------|-----------------|-----------------|-----------------|
|-----------------|-----------------|-----------------|-----------------|
|
|-------5---------|-------------5---|-------5---------|-------------5---|
|---------7-------|---------------7-|---------7-------|---------------7-|
|---6-7-----4-6-7-|---6-7---6-7-----|---6-7-----4-6-7-|---6-7---6-7-----|
|-5---------------|-5-----5---------|-5---------------|-5-----5---------|
|-----------------|-----------------|-----------------|-----------------|
|-----------------|-----------------|-----------------|-----------------|


|-----------------|-----------------|-----------------|-----------------|
|-6-7-7-7-7-7-7-7-|-7-9-9-9-9-7-7-7-|-6-6-6-6-6-6-6-6-|-9-9-9-9-9-9-9-9-|
|-----------------|-----------------|-----------------|-----------------|
|-----------------|-----------------|-----------------|-----------------|
|-----------------|-----------------|-----------------|-----------------|
|-----------------|-----------------|-----------------|-----------------|
|
|-------5---------|-------------5---|-------5---------|-------------5---|
|---------7-------|---------------7-|---------7-------|---------------7-|
|---6-7-----4-6-7-|---6-7---6-7-----|---6-7-----4-6-7-|---6-7---6-7-----|
|-5---------------|-5-----5---------|-5---------------|-5-----5---------|
|-----------------|-----------------|-----------------|-----------------|
|-----------------|-----------------|-----------------|-----------------|

[PRE-CHORUS]
|-----------------|-----------------|-----------------|-----------------|
|-----------------|-----------------|-----------------|-----------------|
|-------7-6-0-----|---7-6-0-----7-6-|-------7-6-0-----|---7-6-0-----7-6-|
|-0-7-9-------7-9-|-0-------7-9-----|-0-7-9-------7-9-|-0-------7-9-----|
|-----------------|-----------------|-----------------|-----------------|
|-----------------|-----------------|-----------------|-----------------|
|
|-------5---------|-------------5---|-------5---------|-------------5---|
|---------7-------|---------------7-|---------7-------|---------------7-|
|---6-7-----4-6-7-|---6-7---6-7-----|---6-7-----4-6-7-|---6-7---6-7-----|
|-5---------------|-5-----5---------|-5---------------|-5-----5---------|
|-----------------|-----------------|-----------------|-----------------|
|-----------------|-----------------|-----------------|-----------------|


|-----------------|-----------------|-----------------|-----------------|
|-----------------|-----------------|-----------------|-----------------|
|-------7-6-0-----|---7-6-0-----7-6-|-------7-6-0-----|---7-6-0-----7-6-|
|-0-7-9-------7-9-|-0-------7-9-----|-0-7-9-------7-9-|-0-------7-9-----|
|-----------------|-----------------|-----------------|-----------------|
|-----------------|-----------------|-----------------|-----------------|
|
|-------5---------|-------------5---|-----------------|-----------------|
|---------7-------|---------------7-|-----------------|-----------------|
|---6-7-----4-6-7-|---6-7---6-7-----|-----------------|-----------------|
|-5---------------|-5-----5---------|-7-7-7-7-----7-7-|-7-7-----7-7~~~~~|
|-----------------|-----------------|-7-7-7-7-----7-7-|-7-7-----7-7~~~~~|
|-----------------|-----------------|-7-7-7-7-----7-7-|-7-7-----7-7~~~~~|


[CHORUS]
|-------------------------|---------------------|
|-------------------------|---------------------|
|-11-11-11-11-11-11-11-11-|-9-9-9-9/14-14-14-14-|
|--x--x--x--x--x--x--x--x-|-x-x-x-x/-x--x--x--x-|
|--9--9--9--9--9--9--9--9-|-7-7-7-7/12-12-12-12-|
|-------------------------|---------------------|
|                                               |
|-------------------------|---------------------|
|-------------------------|---------------------|
|-------------------------|---------------------|
|--9--9--9--9--9--9--9--9-|-9-9-9-9--9--9--9--9-|
|--9--9--9--9--9--9--9--9-|-9-9-9-9--9--9--9--9-|
|--9--9--9--9--9--9--9--9-|-9-9-9-9--9--9--9--9-|



|-------------------------|-------------------------|
|-------------------------|-------------------------|
|-11-11-11-11-11-11-11-11-|--9--9--9--9/14-14-14-14-|
|--x--x--x--x--x--x--x--x-|--x--x--x--x/-x--x--x--x-|
|--9--9--9--9--9--9--9--9-|--7--7--7--7/12-12-12-12-|
|-------------------------|-------------------------|
|                                                   |
|-------------------------|-------------------------|
|-------------------------|-------------------------|
|-------------------------|-------------------------|
|-12-12-12-12-12-12-12-12-|-12-12-12-12-12-12-12-12-|
|-12-12-12-12-12-12-12-12-|-12-12-12-12-12-12-12-12-|
|-12-12-12-12-12-12-12-12-|-12-12-12-12-12-12-12-12-|



|-------------------------|-------------------------|
|-------------------------|-------------------------|
|-11-11-11-11-12-12-11-11-|-12-12-12-12-11-11-11-11-|
|--x--x--x--x--x--x--x--x-|--x--x--x--x--x--x--x--x-|
|--9--9--9--9-10-10-10-10-|-10-10-10-10--9--9--9--9-|
|-------------------------|-------------------------|
|                                                   |
|-------------------------|-------------------------|
|-------------------------|-------------------------|
|-------------------------|-------------------------|
|--5--5--5--5--5--5--5--5-|--5--5--5--5--5--5--5--5-|
|--5--5--5--5--5--5--5--5-|--5--5--5--5--5--5--5--5-|
|--5--5--5--5--5--5--5--5-|--5--5--5--5--5--5--5--5-|


|-----------------|-----------------|
|-----------------|-----------------|
|-9-9-9-9-9-9-9-9-|-9~~~~~~~~~------|
|-x-x-x-x-x-x-x-x-|-x~~~~~~~~~------|
|-7-7-7-7-7-7-7-7-|-7~~~~~~~~~5p4h5-|
|-----------------|-----------------|
|                                   |
|-----------------|-----------------|
|-----------------|-7-5-5-5-5-------|
|-----------------|-----------7p6h7-|
|-7-7-7-7-7-7-7-7-|-----------------|
|-7-7-7-7-7-7-7-7-|-----------------|
|-7-7-7-7-7-7-7-7-|-----------------|


|-------------------------|---------------------|
|-------------------------|---------------------|
|-11-11-11-11-11-11-11-11-|-9-9-9-9/14-14-14-14-|
|--x--x--x--x--x--x--x--x-|-x-x-x-x/-x--x--x--x-|
|--9--9--9--9--9--9--9--9-|-7-7-7-7/12-12-12-12-|
|-------------------------|---------------------|
|                                               |
|-------------------------|---------------------|
|-------------------------|---------------------|
|-------------------------|---------------------|
|--9--9--9--9--9--9--9--9-|-9-9-9-9--9--9--9--9-|
|--9--9--9--9--9--9--9--9-|-9-9-9-9--9--9--9--9-|
|--9--9--9--9--9--9--9--9-|-9-9-9-9--9--9--9--9-|



|-------------------------|-------------------------|
|-------------------------|-------------------------|
|-11-11-11-11-11-11-11-11-|--9--9--9--9/14-14-14-14-|
|--x--x--x--x--x--x--x--x-|--x--x--x--x/-x--x--x--x-|
|--9--9--9--9--9--9--9--9-|--7--7--7--7/12-12-12-12-|
|-------------------------|-------------------------|
|                                                   |
|-------------------------|-------------------------|
|-------------------------|-------------------------|
|-------------------------|-------------------------|
|-12-12-12-12-12-12-12-12-|-12-12-12-12-12-12-12-12-|
|-12-12-12-12-12-12-12-12-|-12-12-12-12-12-12-12-12-|
|-12-12-12-12-12-12-12-12-|-12-12-12-12-12-12-12-12-|



|-------------------------|-------------------------|
|-------------------------|-------------------------|
|-11-11-11-11-12-12-11-11-|-12-12-12-12-11-11-11-11-|
|--x--x--x--x--x--x--x--x-|--x--x--x--x--x--x--x--x-|
|--9--9--9--9-10-10-10-10-|-10-10-10-10--9--9--9--9-|
|-------------------------|-------------------------|
|                                                   |
|-------------------------|-------------------------|
|-------------------------|-------------------------|
|-------------------------|-------------------------|
|--5--5--5--5--5--5--5--5-|--5--5--5--5--5--5--5--5-|
|--5--5--5--5--5--5--5--5-|--5--5--5--5--5--5--5--5-|
|--5--5--5--5--5--5--5--5-|--5--5--5--5--5--5--5--5-|


|-----------------|-----------------|
|-----------------|-----------------|
|-9-9-9-9-9-9-9-9-|-9~~~~~~~~~~~~~~~|
|-x-x-x-x-x-x-x-x-|-x~~~~~~~~~~~~~~~|
|-7-7-7-7-7-7-7-7-|-7~~~~~~~~~~~~~~~|
|-----------------|-----------------|
|                                   |           
|-----------------|---------5-------|
|-----------------|-----------------|
|-----------------|-7-9-6-7---7-6-7-|
|-7-7-7-7-7-7-7-7-|-----------------|
|-7-7-7-7-7-7-7-7-|-----------------|
|-7-7-7-7-7-7-7-7-|-----------------|


[VERSE]
|-----------------|-----------------|-----------------|-----------------|
|-7-7-7-7-7-7-7-7-|-7-7-7-7-7-7-7-7-|-6-6-6-6-6-6-6-6-|-6-6-6-6-6-6-6-6-|
|-----------------|-----------------|-----------------|-----------------|
|-----------------|-----------------|-----------------|-----------------|
|-----------------|-----------------|-----------------|-----------------|
|-----------------|-----------------|-----------------|-----------------|
|
|-----------------|-----------------|-----------------|-----------------|
|-----------------|-----------------|-----------------|-----------------|
|-----------------|-----------------|-----------------|-----------------|
|-9~~~~~~~~~~~~~~~|~~~~~~~~~~~~~~~~~|-7~~~~~~~~~~~~~~~|~~~~~~~~~~~~~~~~~|
|-9~~~~~~~~~~~~~~~|~~~~~~~~~~~~~~~~~|-7~~~~~~~~~~~~~~~|~~~~~~~~~~~~~~~~~|
|-9~~~~~~~~~~~~~~~|~~~~~~~~~~~~~~~~~|-7~~~~~~~~~~~~~~~|~~~~~~~~~~~~~~~~~|


|-----------------|-----------------|-----------------|-----------------|
|-7-7-7-7-7-7-7-7-|-7-9-9-9-9-7-7-7-|-6-6-6-6-6-6-6-6-|-6-7-7-7-7-6-4---|
|-----------------|-----------------|-----------------|-----------------|
|-----------------|-----------------|-----------------|-----------------|
|-----------------|-----------------|-----------------|-----------------|
|-----------------|-----------------|-----------------|-----------------|
|
|-----------------|-----------------|-----------------|-----------------|
|-----------------|-----------------|-----------------|-----------------|
|-7~~~~~~~~~~~~~~~|~~~~~~~~~~~~~~~~~|-----------------|-----------------|
|-5~~~~~~~~~~~~~~~|~~~~~~~~~~~~~~~~~|-7~~~~~~~~~~~~~~~|~~~~~~~~~~~~~~~~~|
|-5~~~~~~~~~~~~~~~|~~~~~~~~~~~~~~~~~|-7~~~~~~~~~~~~~~~|~~~~~~~~~~~~~~~~~|
|-5~~~~~~~~~~~~~~~|~~~~~~~~~~~~~~~~~|-7~~~~~~~~~~~~~~~|~~~~~~~~~~~~~~~~~|


|-----------------|-----------------|-----------------|-----------------|
|-7-7-7-7-7-7-7-7-|-7-7-7-7-7-7-7-7-|-6-6-6-6-6-6-6-6-|-6-6-6-6-6-6-6-6-|
|-----------------|-----------------|-----------------|-----------------|
|-----------------|-----------------|-----------------|-----------------|
|-----------------|-----------------|-----------------|-----------------|
|-----------------|-----------------|-----------------|-----------------|
|
|-------5---------|-------------5---|-------5---------|-------------5---|
|---------7-------|---------------7-|---------7-------|---------------7-|
|---6-7-----4-6-7-|---6-7---6-7-----|---6-7-----4-6-7-|---6-7---6-7-----|
|-5---------------|-5-----5---------|-5---------------|-5-----5---------|
|-----------------|-----------------|-----------------|-----------------|
|-----------------|-----------------|-----------------|-----------------|


|-----------------|-----------------|-----------------|-----------------|
|-6-7-7-7-7-7-7-7-|-7-9-9-9-9-7-7-7-|-6-6-6-6-6-6-6-6-|-9-9-9-9-9-9-9-9-|
|-----------------|-----------------|-----------------|-----------------|
|-----------------|-----------------|-----------------|-----------------|
|-----------------|-----------------|-----------------|-----------------|
|-----------------|-----------------|-----------------|-----------------|
|
|-------5---------|-------------5---|-------5---------|-------------5---|
|---------7-------|---------------7-|---------7-------|---------------7-|
|---6-7-----4-6-7-|---6-7---6-7-----|---6-7-----4-6-7-|---6-7---6-7-----|
|-5---------------|-5-----5---------|-5---------------|-5-----5---------|
|-----------------|-----------------|-----------------|-----------------|
|-----------------|-----------------|-----------------|-----------------|

[PRE-CHORUS]
|-----------------|-----------------|-----------------|-----------------|
|-----------------|-----------------|-----------------|-----------------|
|-------7-6-0-----|---7-6-0-----7-6-|-------7-6-0-----|---7-6-0-----7-6-|
|-0-7-9-------7-9-|-0-------7-9-----|-0-7-9-------7-9-|-0-------7-9-----|
|-----------------|-----------------|-----------------|-----------------|
|-----------------|-----------------|-----------------|-----------------|
|
|-------5---------|-------------5---|-------5---------|-------------5---|
|---------7-------|---------------7-|---------7-------|---------------7-|
|---6-7-----4-6-7-|---6-7---6-7-----|---6-7-----4-6-7-|---6-7---6-7-----|
|-5---------------|-5-----5---------|-5---------------|-5-----5---------|
|-----------------|-----------------|-----------------|-----------------|
|-----------------|-----------------|-----------------|-----------------|


|-----------------|-----------------|-----------------|-----------------|
|-----------------|-----------------|-----------------|-----------------|
|-------7-6-0-----|---7-6-0-----7-6-|-------7-6-0-----|---7-6-0-----7-6-|
|-0-7-9-------7-9-|-0-------7-9-----|-0-7-9-------7-9-|-0-------7-9-----|
|-----------------|-----------------|-----------------|-----------------|
|-----------------|-----------------|-----------------|-----------------|
|
|-------5---------|-------------5---|-----------------|-----------------|
|---------7-------|---------------7-|-----------------|-----------------|
|---6-7-----4-6-7-|---6-7---6-7-----|-----------------|-----------------|
|-5---------------|-5-----5---------|-7-7-7-7-----7-7-|-7-7-----7-7~~~~~|
|-----------------|-----------------|-7-7-7-7-----7-7-|-7-7-----7-7~~~~~|
|-----------------|-----------------|-7-7-7-7-----7-7-|-7-7-----7-7~~~~~|


[CHORUS]
|-------------------------|---------------------|
|-------------------------|---------------------|
|-11-11-11-11-11-11-11-11-|-9-9-9-9/14-14-14-14-|
|--x--x--x--x--x--x--x--x-|-x-x-x-x/-x--x--x--x-|
|--9--9--9--9--9--9--9--9-|-7-7-7-7/12-12-12-12-|
|-------------------------|---------------------|
|                                               |
|-------------------------|---------------------|
|-------------------------|---------------------|
|-------------------------|---------------------|
|--9--9--9--9--9--9--9--9-|-9-9-9-9--9--9--9--9-|
|--9--9--9--9--9--9--9--9-|-9-9-9-9--9--9--9--9-|
|--9--9--9--9--9--9--9--9-|-9-9-9-9--9--9--9--9-|



|-------------------------|-------------------------|
|-------------------------|-------------------------|
|-11-11-11-11-11-11-11-11-|--9--9--9--9/14-14-14-14-|
|--x--x--x--x--x--x--x--x-|--x--x--x--x/-x--x--x--x-|
|--9--9--9--9--9--9--9--9-|--7--7--7--7/12-12-12-12-|
|-------------------------|-------------------------|
|                                                   |
|-------------------------|-------------------------|
|-------------------------|-------------------------|
|-------------------------|-------------------------|
|-12-12-12-12-12-12-12-12-|-12-12-12-12-12-12-12-12-|
|-12-12-12-12-12-12-12-12-|-12-12-12-12-12-12-12-12-|
|-12-12-12-12-12-12-12-12-|-12-12-12-12-12-12-12-12-|



|-------------------------|-------------------------|
|-------------------------|-------------------------|
|-11-11-11-11-12-12-11-11-|-12-12-12-12-11-11-11-11-|
|--x--x--x--x--x--x--x--x-|--x--x--x--x--x--x--x--x-|
|--9--9--9--9-10-10-10-10-|-10-10-10-10--9--9--9--9-|
|-------------------------|-------------------------|
|                                                   |
|-------------------------|-------------------------|
|-------------------------|-------------------------|
|-------------------------|-------------------------|
|--5--5--5--5--5--5--5--5-|--5--5--5--5--5--5--5--5-|
|--5--5--5--5--5--5--5--5-|--5--5--5--5--5--5--5--5-|
|--5--5--5--5--5--5--5--5-|--5--5--5--5--5--5--5--5-|


|-----------------|-----------------|
|-----------------|-----------------|
|-9-9-9-9-9-9-9-9-|-9~~~~~~~~~------|
|-x-x-x-x-x-x-x-x-|-x~~~~~~~~~------|
|-7-7-7-7-7-7-7-7-|-7~~~~~~~~~5p4h5-|
|-----------------|-----------------|
|                                   |
|-----------------|-----------------|
|-----------------|-7-5-5-5-5-------|
|-----------------|-----------7p6h7-|
|-7-7-7-7-7-7-7-7-|-----------------|
|-7-7-7-7-7-7-7-7-|-----------------|
|-7-7-7-7-7-7-7-7-|-----------------|


[INTERLUDE]
|---------5-------|---------5-------|---------5-------|---------5-------|
|-----7-----------|-----7-----------|-----7-----------|-----7-----------|
|-6-7---7---7-6-7-|-6-7---7---7-6-7-|-6-7---7---7-6-7-|-6-7---7---7-6-7-|
|-----------------|-----------------|-----------------|-----------------|
|-----------------|-----------------|-----------------|-----------------|
|-----------------|-----------------|-----------------|-----------------|
| . .   .   . . .   . .   .   . . .   . .   .   . . .   . .   .   . . . 
|
|-----------------|-----------------|-----------------|-----------------|
|-----------------|-----------------|-----------------|-----------------|
|-7-7-7-7-7-7-7-7-|-7-7-7-7-7-7-7-7-|-6-6-6-6-6-6-6-6-|-6-6-6-6-6-6-6-6-|
|-----------------|-----------------|-----------------|-----------------|
|-----------------|-----------------|-----------------|-----------------|
|-----------------|-----------------|-----------------|-----------------|


|---------5-------|---------5-------|---------5-------|---------5-------|
|-----7-----------|-----7-----------|-----7-----------|-----7-----------|
|-6-7---7---7-6-7-|-6-7---7---7-6-7-|-6-7---7---7-6-7-|-6-7---7---7-6-7-|
|-----------------|-----------------|-----------------|-----------------|
|-----------------|-----------------|-----------------|-----------------|
|-----------------|-----------------|-----------------|-----------------|
| . .   .   . . .   . .   .   . . .   . .   .   . . .   . .   .   . . . 
|
|-----------------|-----------------|-----------------|-----------------|
|-----------------|-----------------|-----------------|-----------------|
|-7-7-7-7-7-7-7-7-|-7-7-7-7-7-7-7-7-|-6-6-6-6-6-6-6-6-|-6-6-6-6-6-6-6-6-|
|-----------------|-----------------|-----------------|-----------------|
|-----------------|-----------------|-----------------|-----------------|
|-----------------|-----------------|-----------------|-----------------|


|---------5-------|---------5-------|---------5-------|---------5-------|
|-----7-----------|-----7-----------|-----7-----------|-----7-----------|
|-6-7---7---7-6-7-|-6-7---7---7-6-7-|-6-7---7---7-6-7-|-6-7---7---7-6-7-|
|-----------------|-----------------|-----------------|-----------------|
|-----------------|-----------------|-----------------|-----------------|
|-----------------|-----------------|-----------------|-----------------|
| . .   .   . . .   . .   .   . . .   . .   .   . . .   . .   .   . . . 
|
|-----5--10-9-5---|-----5--10-9-5---|-----5--10-9-5---|-----5--10-9-5---|
|-------7---------|-------7---------|-------7---------|-------7---------|
|-7-7-----------7-|-7-7-----------7-|-6-6-----------6-|-6-6-----------6-|
|-----------------|-----------------|-----------------|-----------------|
|-----------------|-----------------|-----------------|-----------------|
|-----------------|-----------------|-----------------|-----------------|
  . .   .       .   . .   .       .   . .   .       .   . .   .       .


|---------5-------|---------5-------|---------5-------|---------5-------|
|-----7-----------|-----7-----------|-----7-----------|-----7-----------|
|-6-7---7---7-6-7-|-6-7---7---7-6-7-|-6-7---7---7-6-7-|-6-7---7---7-6-7-|
|-----------------|-----------------|-----------------|-----------------|
|-----------------|-----------------|-----------------|-----------------|
|-----------------|-----------------|-----------------|-----------------|
| . .   .   . . .   . .   .   . . .   . .   .   . . .   . .   .   . . . 
|
|-----5--10-9-5---|-----5--10-9-5---|-----5--10-9-5---|-----5--10-9-5---|
|-------7---------|-------7---------|-------7---------|-------7---------|
|-7-7-----------7-|-7-7-----------7-|-6-6-----------6-|-6-6-----------6-|
|-----------------|-----------------|-----------------|-----------------|
|-----------------|-----------------|-----------------|-----------------|
|-----------------|-----------------|-----------------|-----------------|
  . .   .       .   . .   .       .   . .   .       .   . .   .       .



[PRE-CHORUS]
|-----------------|-----------------|-----------------|-----------------|
|-----------------|-----------------|-----------------|-----------------|
|-------7-6-0-----|---7-6-0-----7-6-|-------7-6-0-----|---7-6-0-----7-6-|
|-0-7-9-------7-9-|-0-------7-9-----|-0-7-9-------7-9-|-0-------7-9-----|
|-----------------|-----------------|-----------------|-----------------|
|-----------------|-----------------|-----------------|-----------------|
|
|-------5---------|-------------5---|-------5---------|-------------5---|
|---------7-------|---------------7-|---------7-------|---------------7-|
|---6-7-----4-6-7-|---6-7---6-7-----|---6-7-----4-6-7-|---6-7---6-7-----|
|-5---------------|-5-----5---------|-5---------------|-5-----5---------|
|-----------------|-----------------|-----------------|-----------------|
|-----------------|-----------------|-----------------|-----------------|


|-----------------|-----------------|-----------------|-----------------|
|-----------------|-----------------|-----------------|-----------------|
|-------7-6-0-----|---7-6-0-----7-6-|-------7-6-0-----|---7-6-0-----7-6-|
|-0-7-9-------7-9-|-0-------7-9-----|-0-7-9-------7-9-|-0-------7-9-----|
|-----------------|-----------------|-----------------|-----------------|
|-----------------|-----------------|-----------------|-----------------|
|
|-------5---------|-------------5---|-----------------|-----------------|
|---------7-------|---------------7-|-----------------|-----------------|
|---6-7-----4-6-7-|---6-7---6-7-----|-----------------|-----------------|
|-5---------------|-5-----5---------|-7-7-7-7-----7-7-|-7-7-----7-7~~~~~|
|-----------------|-----------------|-7-7-7-7-----7-7-|-7-7-----7-7~~~~~|
|-----------------|-----------------|-7-7-7-7-----7-7-|-7-7-----7-7~~~~~|


[CHORUS]
|-------------------------|---------------------|
|-------------------------|---------------------|
|-11-11-11-11-11-11-11-11-|-9-9-9-9/14-14-14-14-|
|--x--x--x--x--x--x--x--x-|-x-x-x-x/-x--x--x--x-|
|--9--9--9--9--9--9--9--9-|-7-7-7-7/12-12-12-12-|
|-------------------------|---------------------|
|                                               |
|-------------------------|---------------------|
|-------------------------|---------------------|
|-------------------------|---------------------|
|--9--9--9--9--9--9--9--9-|-9-9-9-9--9--9--9--9-|
|--9--9--9--9--9--9--9--9-|-9-9-9-9--9--9--9--9-|
|--9--9--9--9--9--9--9--9-|-9-9-9-9--9--9--9--9-|



|-------------------------|-------------------------|
|-------------------------|-------------------------|
|-11-11-11-11-11-11-11-11-|--9--9--9--9/14-14-14-14-|
|--x--x--x--x--x--x--x--x-|--x--x--x--x/-x--x--x--x-|
|--9--9--9--9--9--9--9--9-|--7--7--7--7/12-12-12-12-|
|-------------------------|-------------------------|
|                                                   |
|-------------------------|-------------------------|
|-------------------------|-------------------------|
|-------------------------|-------------------------|
|-12-12-12-12-12-12-12-12-|-12-12-12-12-12-12-12-12-|
|-12-12-12-12-12-12-12-12-|-12-12-12-12-12-12-12-12-|
|-12-12-12-12-12-12-12-12-|-12-12-12-12-12-12-12-12-|



|-------------------------|-------------------------|
|-------------------------|-------------------------|
|-11-11-11-11-12-12-11-11-|-12-12-12-12-11-11-11-11-|
|--x--x--x--x--x--x--x--x-|--x--x--x--x--x--x--x--x-|
|--9--9--9--9-10-10-10-10-|-10-10-10-10--9--9--9--9-|
|-------------------------|-------------------------|
|                                                   |
|-------------------------|-------------------------|
|-------------------------|-------------------------|
|-------------------------|-------------------------|
|--5--5--5--5--5--5--5--5-|--5--5--5--5--5--5--5--5-|
|--5--5--5--5--5--5--5--5-|--5--5--5--5--5--5--5--5-|
|--5--5--5--5--5--5--5--5-|--5--5--5--5--5--5--5--5-|


|-----------------|-----------------|
|-----------------|-----------------|
|-9-9-9-9-9-9-9-9-|-9~~~~~~~~~------|
|-x-x-x-x-x-x-x-x-|-x~~~~~~~~~------|
|-7-7-7-7-7-7-7-7-|-7~~~~~~~~~5p4h5-|
|-----------------|-----------------|
|                                   |
|-----------------|-----------------|
|-----------------|-7-5-5-5-5-------|
|-----------------|-----------7p6h7-|
|-7-7-7-7-7-7-7-7-|-----------------|
|-7-7-7-7-7-7-7-7-|-----------------|
|-7-7-7-7-7-7-7-7-|-----------------|


|-------------------------|---------------------|
|-------------------------|---------------------|
|-11-11-11-11-11-11-11-11-|-9-9-9-9/14-14-14-14-|
|--x--x--x--x--x--x--x--x-|-x-x-x-x/-x--x--x--x-|
|--9--9--9--9--9--9--9--9-|-7-7-7-7/12-12-12-12-|
|-------------------------|---------------------|
|                                               |
|-------------------------|---------------------|
|-------------------------|---------------------|
|-------------------------|---------------------|
|--9--9--9--9--9--9--9--9-|-9-9-9-9--9--9--9--9-|
|--9--9--9--9--9--9--9--9-|-9-9-9-9--9--9--9--9-|
|--9--9--9--9--9--9--9--9-|-9-9-9-9--9--9--9--9-|



|-------------------------|-------------------------|
|-------------------------|-------------------------|
|-11-11-11-11-11-11-11-11-|--9--9--9--9/14-14-14-14-|
|--x--x--x--x--x--x--x--x-|--x--x--x--x/-x--x--x--x-|
|--9--9--9--9--9--9--9--9-|--7--7--7--7/12-12-12-12-|
|-------------------------|-------------------------|
|                                                   |
|-------------------------|-------------------------|
|-------------------------|-------------------------|
|-------------------------|-------------------------|
|-12-12-12-12-12-12-12-12-|-12-12-12-12-12-12-12-12-|
|-12-12-12-12-12-12-12-12-|-12-12-12-12-12-12-12-12-|
|-12-12-12-12-12-12-12-12-|-12-12-12-12-12-12-12-12-|



|-------------------------|-------------------------|
|-------------------------|-------------------------|
|-11-11-11-11-12-12-11-11-|-12-12-12-12-11-11-11-11-|
|--x--x--x--x--x--x--x--x-|--x--x--x--x--x--x--x--x-|
|--9--9--9--9-10-10-10-10-|-10-10-10-10--9--9--9--9-|
|-------------------------|-------------------------|
|                                                   |
|-------------------------|-------------------------|
|-------------------------|-------------------------|
|-------------------------|-------------------------|
|--5--5--5--5--5--5--5--5-|--5--5--5--5--5--5--5--5-|
|--5--5--5--5--5--5--5--5-|--5--5--5--5--5--5--5--5-|
|--5--5--5--5--5--5--5--5-|--5--5--5--5--5--5--5--5-|


|-----------------|-----------------|
|-----------------|-----------------|
|-9-9-9-9-9-9-9-9-|-9~~~~~~~~~~~~~~~|
|-x-x-x-x-x-x-x-x-|-x~~~~~~~~~~~~~~~|
|-7-7-7-7-7-7-7-7-|-7~~~~~~~~~~~~~~~|
|-----------------|-----------------|
|                                   |           
|-----------------|---------5-------|
|-----------------|-----------------|
|-----------------|-7-9-6-7---7-6-7-|
|-7-7-7-7-7-7-7-7-|-----------------|
|-7-7-7-7-7-7-7-7-|-----------------|
|-7-7-7-7-7-7-7-7-|-----------------|

[OUTRO]
|-------------------------|-------------------------|
|-------------------------|-------------------------|
|-11-11-11-11-11-11-11-11-|-11-11-11-11-11-11-11-11-|
|--x--x--x--x--x--x--x--x-|--x--x--x--x--x--x--x--x-|
|--9--9--9--9--9--9--9--9-|--9--9--9--9--9--9--9--9-|
|-------------------------|-------------------------|
|                                                   |
|-------------------------|-------------------------|
|-------------------------|-------------------------|
|-7~~~~~~~~~~~~~~~~~~~~~~~|~~~~~~~~~~~~~~~~~~~~~~~~~|
|-7~~~~~~~~~~~~~~~~~~~~~~~|~~~~~~~~~~~~~~~~~~~~~~~~~|
|-5~~~~~~~~~~~~~~~~~~~~~~~|~~~~~~~~~~~~~~~~~~~~~~~~~|
|-------------------------|-------------------------

|-------------------------|-------------------------|
|-------------------------|-------------------------|
|-11-11-11-11-11-11-11-11-|-11-11-11-11-11-11-11-11-|
|--x--x--x--x--x--x--x--x-|--x--x--x--x--x--x--x--x-|
|--9--9--9--9--9--9--9--9-|--9--9--9--9--9--9--9--9-|
|-------------------------|-------------------------|
|                                                   |
|-------------------------|-------------------------|
|-------------------------|-------------------------|
|~~~~~~~~~~~~~~~~~~~~~~~~~|~~~~~~~~~~~~~~~~~~~~~~~~~|
|~~~~~~~~~~~~~~~~~~~~~~~~~|~~~~~~~~~~~~~~~~~~~~~~~~~|
|~~~~~~~~~~~~~~~~~~~~~~~~~|~~~~~~~~~~~~~~~~~~~~~~~~~|


|-------------------------|-------------------------|
|-------------------------|-------------------------|
|-10-10-10-10-10-10-10-10-|-10-10-10-10-10-10-10-10-|
|--x--x--x--x--x--x--x--x-|--x--x--x--x--x--x--x--x-|
|--8--8--8--8--8--8--8--8-|--8--8--8--8--8--8--8--8-|
|-------------------------|-------------------------|
|                                                   |
|-------------------------|-------------------------|
|-------------------------|-------------------------|
|-3~~~~~~~~~~~~~~~~~~~~~~~|~~~~~~~~~~~~~~~~~~~~~~~~~|
|-3~~~~~~~~~~~~~~~~~~~~~~~|~~~~~~~~~~~~~~~~~~~~~~~~~|
|-1~~~~~~~~~~~~~~~~~~~~~~~|~~~~~~~~~~~~~~~~~~~~~~~~~|
|-------------------------|-------------------------|

|-----------------|-----------------|
|-----------------|-----------------|
|-9-9-9-9-9-9-9-9-|-9-9-9-9-9-9-9-9-|
|-x-x-x-x-x-x-x-x-|-x-x-x-x-x-x-x-x-|
|-7-7-7-7-7-7-7-7-|-7-7-7-7-7-7-7-7-|
|-----------------|-----------------|
|                                                   
|-----------------|-----------------|
|-----------------|-----------------|
|-5~~~~~~~~~~~~~~~|~~~~~~~~~~~~~~~~~|
|-5~~~~~~~~~~~~~~~|~~~~~~~~~~~~~~~~~|
|-3~~~~~~~~~~~~~~~|~~~~~~~~~~~~~~~~~|
|-----------------|-----------------|
|-----------------|-----------------|


|-------------------------|-------------------------|
|-------------------------|-------------------------|
|-11-11-11-11-11-11-11-11-|-11-11-11-11-11-11-11-11-|
|--x--x--x--x--x--x--x--x-|--x--x--x--x--x--x--x--x-|
|--9--9--9--9--9--9--9--9-|--9--9--9--9--9--9--9--9-|
|-------------------------|-------------------------|
|                                                   |
|-------------------------|-------------------------|
|-------------------------|-------------------------|
|-7~~~~~~~~~~~~~~~~~~~~~~~|~~~~~~~~~~~~~~~~~~~~~~~~~|
|-7~~~~~~~~~~~~~~~~~~~~~~~|~~~~~~~~~~~~~~~~~~~~~~~~~|
|-5~~~~~~~~~~~~~~~~~~~~~~~|~~~~~~~~~~~~~~~~~~~~~~~~~|
|-------------------------|-------------------------

|-------------------------|-------------------------|
|-------------------------|-------------------------|
|-11-11-11-11-11-11-11-11-|-11-11-11-11-11-11-11-11-|
|--x--x--x--x--x--x--x--x-|--x--x--x--x--x--x--x--x-|
|--9--9--9--9--9--9--9--9-|--9--9--9--9--9--9--9--9-|
|-------------------------|-------------------------|
|                                                   |
|-------------------------|-------------------------|
|-------------------------|-------------------------|
|~~~~~~~~~~~~~~~~~~~~~~~~~|~~~~~~~~~~~~~~~~~~~~~~~~~|
|~~~~~~~~~~~~~~~~~~~~~~~~~|~~~~~~~~~~~~~~~~~~~~~~~~~|
|~~~~~~~~~~~~~~~~~~~~~~~~~|~~~~~~~~~~~~~~~~~~~~~~~~~|


|-------------------------|-------------------------|
|-------------------------|-------------------------|
|-10-10-10-10-10-10-10-10-|-10-10-10-10-10-10-10-10-|
|--x--x--x--x--x--x--x--x-|--x--x--x--x--x--x--x--x-|
|--8--8--8--8--8--8--8--8-|--8--8--8--8--8--8--8--8-|
|-------------------------|-------------------------|
|                                                   |
|-------------------------|-------------------------|
|-------------------------|-------------------------|
|-3~~~~~~~~~~~~~~~~~~~~~~~|~~~~~~~~~~~~~~~~~~~~~~~~~|
|-3~~~~~~~~~~~~~~~~~~~~~~~|~~~~~~~~~~~~~~~~~~~~~~~~~|
|-1~~~~~~~~~~~~~~~~~~~~~~~|~~~~~~~~~~~~~~~~~~~~~~~~~|
|-------------------------|-------------------------|

|-----------------|-----------------|
|-----------------|-----------------|
|-9-9-9-9-9-9-9-9-|-9-9-9-9-9-9-9-9-|
|-x-x-x-x-x-x-x-x-|-x-x-x-x-x-x-x-x-|
|-7-7-7-7-7-7-7-7-|-7-7-7-7-7-7-7-7-|
|-----------------|-----------------|
|                                                   
|-----------------|-----------------|
|-----------------|-----------------|
|-5~~~~~~~~~~~~~~~|~~~~~~~~~~~~~~~~~|
|-5~~~~~~~~~~~~~~~|~~~~~~~~~~~~~~~~~|
|-3~~~~~~~~~~~~~~~|~~~~~~~~~~~~~~~~~|
|-----------------|-----------------|
|-----------------|-----------------|

|-----------------||
|-----------------||
|--11~~~~~~~~~~~~~||
|--x~~~~~~~~~~~~~~||
|--9~~~~~~~~~~~~~~||
|-----------------||
|
|-----------------||
|-----------------||
|-7~~~~~~~~~~~~~~~||
|-7~~~~~~~~~~~~~~~||
|-5~~~~~~~~~~~~~~~||
|-----------------||

THE END ! Have fun
comments
print report bad tab
4 comments total. Showing first comments.
0 reply
fenderdude098 wrote on December 21 2006, 09:55 pm

i love you...


haha

0 reply
kilik629 wrote on October 7 2007, 06:00 pm

godly... so freakin godly...

0 reply
colz08 wrote on May 4 2008, 01:24 am

best tab for d song.. r u d unregistered user hu submitted the gtr pro tab of this?.. cause its d very same.. cause if not its very suckish that d one hu submitted that used ur tab and just added the bass and drums..

I want to post or [tab]
guest
You may want to rate the tab now too:
select rating
Please do not post tabs as comments. Select "correction" instead!