Oops, an error
Loading. Please wait.

I Never Wanted To Tab

ver2
ver2

Solo

Whole song

Interactive

More versions @911Tabs.com
6,465 views 6 this week
1 commentread comment
1 2 3 4 5
excellent!
x 2
Autoscroll
+/-
esc
set tempo
stop
WARNING: You are trying to view
                                    content from Ultimate-Guitar.com
                                    in an unauthorized application,
                                    which is prohibited.

                                    Please use an official Ultimate
                                    Guitar Tabs application for iPhone,
                                    iPad or Android to access legitimate
                                    chords, guitar, bass, and drum tabs
                                    from Ultimate-Guitar.com database.

                                    Type "ultimate guitar tabs" in Apple
                                    App Store's or Android Market's
                                    search to find the application.
got this from the gutiar pro file, so any questions..go an ask the guy who made that one

I Never Wanted To
                                 


                                                                          Saosin
Justin



      PM  PM  PM  PM  PM  PM  PM  PM     PM  PM  PM  PM PM PM PM PM  
      E   E   E   E   E   E   E   E      E   E   E   E  E  E  E  E   
D||----------------------------------|------------------------------|
A||----------------------------------|------------------------------|
F||--10--10--10--10--10--10--10--10--|--10--10--10--10--------------|
C||----------------------------------|------------------7--7--7--7--|
G||----------------------------------|------------------------------|
C||----------------------------------|------------------------------|


   PM  PM  PM  PM  PM  PM  PM  PM     PM  PM  PM  PM  PM  PM  PM  PM  
   E   E   E   E   E   E   E   E      E   E   E   E   E   E   E   E   
----------------------------------|----------------------------------|
----------------------------------|----------------------------------|
----------------------------------|----------------------------------|
--12--12--12--12--12--12--12--12--|--12--12--12--12--12--12--12--12--|
----------------------------------|----------------------------------|
----------------------------------|----------------------------------|


   PM  PM  PM  PM  PM  PM  PM  PM     PM  PM  PM  PM  PM  PM  PM  PM  
   E   E   E   E   E   E   E   E      E   E   E   E   E   E   E   E   
----------------------------------|----------------------------------|
----------------------------------|----------------------------------|
--10--10--10--10--10--10--10--10--|--10--10--10--10------------------|
----------------------------------|----------------------------------|
----------------------------------|------------------10--10--10--10--|
----------------------------------|----------------------------------|


   PM  PM  PM  PM  PM  PM  PM  PM     PM  PM  PM  PM  PM  PM  PM  PM  
   E   E   E   E   E   E   E   E      E   E   E   E   E   E   E   E   
----------------------------------|----------------------------------|
----------------------------------|----------------------------------|
----------------------------------|----------------------------------|
--12--12--12--12--10--10--10--10--|--10--10--10--10--10--10--10--10--|
----------------------------------|----------------------------------|
----------------------------------|----------------------------------|


   E.   E.   E  E.   E.   E      E.   E.   E  E.   E.   E   
----------------0------------|----------------0------------|
------------10------10-------|------------10------10-------|
-------12----------------12--|-------12----------------12--|
--10-------------------------|--10-------------------------|
-----------------------------|-----------------------------|
-----------------------------|-----------------------------|


   E.   E.   E  E.   E.   E      E.   E.   E  E.   E.   E   
----------------0------------|----------------0------------|
------------10------10-------|------------10------10-------|
-------12----------------12--|-------12----------------12--|
--10-------------------------|--10-------------------------|
-----------------------------|-----------------------------|
-----------------------------|-----------------------------|


   E.   E.   E  E.   E.   E      E.   E.   E  E.   E.   E   
----------------0------------|----------------0------------|
------------10------10-------|------------10------10-------|
-------12----------------12--|-------12----------------12--|
--10-------------------------|--10-------------------------|
-----------------------------|-----------------------------|
-----------------------------|-----------------------------|


   E.   E.   E  E.   E.   E      E.   E.   E  E.   E.   E   
----------------0------------|----------------0------------|
------------10------10-------|------------10------10-------|
-------12----------------12--|-------12----------------12--|
--10-------------------------|--10-------------------------|
-----------------------------|-----------------------------|
-----------------------------|-----------------------------|


   E.   E.   E  E.   E.   E      E.   E.   E  E.   E.   E   
----------------0------------|----------------0------------|
------------10------10-------|------------10------10-------|
-------12----------------12--|-------12----------------12--|
--10-------------------------|--10-------------------------|
-----------------------------|-----------------------------|
-----------------------------|-----------------------------|


   E.   E.   E  E.   E.   E      E.   E.   E  E.   E.   E   
----------------0------------|----------------0------------|
------------10------10-------|------------10------10-------|
-------12----------------12--|-------12----------------12--|
--10-------------------------|--10-------------------------|
-----------------------------|-----------------------------|
-----------------------------|-----------------------------|


   E  E   E   E   E   E   E   E      E   E  E   E   E   E   E   E   
---------------------------------|---------------------------------|
-----------------10--------------|-----------------10--------------|
------9--10----------10------10--|--12------9--10------12------12--|
--12---------12----------12------|------12-----------------10------|
---------------------------------|---------------------------------|
---------------------------------|---------------------------------|


   E  E   E   E   E   E   E   E      E   E  E   E  Q      E   E   
---------------------------------|-------------------------------|
-----------------10--------------|-------------------------------|
------9--10----------10------10--|--12------9------9br----L------|
--12---------12----------12------|------12-----12------------10--|
---------------------------------|-------------------------------|
---------------------------------|-------------------------------|


   E  E   E   E   E   E   E   E      E   E  E   E   E   E   E   E   
---------------------------------|---------------------------------|
-----------------10--------------|-----------------10--------------|
------9--10----------10------10--|--12------9--10------12------12--|
--12---------12----------12------|------12-----------------10------|
---------------------------------|---------------------------------|
---------------------------------|---------------------------------|


   E  E   E   E   E   E   E   E      E   E  E   E  Q      E   E   
---------------------------------|-------------------------------|
-----------------10--------------|-------------------------------|
------9--10----------10------10--|--12------9------9br----L------|
--12---------12----------12------|------12-----12------------10--|
---------------------------------|-------------------------------|
---------------------------------|-------------------------------|


   E   E   E   E   Q      E   E      E   E   Q      E   E   E   E   
---------------------------------|---------------------------------|
---------------------------------|---------------------------------|
--------------17--14~------------|------17--14~----------------17--|
------14--15-----------------14--|--15-----------------14--15------|
--17---------------------17------|-----------------17--------------|
---------------------------------|---------------------------------|


   Q      E   E   E   E   Q         E   E   E   E   E   E   E   E   
--------------------------------|----------------------------------|
--------------------------------|------------------------------15--|
--14~----------------17--14~----|--------------17--14--------------|
-------------14--15-------------|------14--15----------15--14------|
---------17---------------------|--17------------------------------|
--------------------------------|----------------------------------|


   E   E   E   E   Q      E   E      E   E   Q      E   E   E   E   
---------------------------------|---------------------------------|
---------------------------------|---------------------------------|
--------------17--14~------------|------17--14~----------------17--|
------14--15-----------------14--|--15-----------------14--15------|
--17---------------------17------|-----------------17--------------|
---------------------------------|---------------------------------|


   Q      E   E   E   E   Q         E   E   E   E   E   E   E   E   
--------------------------------|----------------------------------|
--------------------------------|------------------------------15--|
--14~----------------17--14~----|--------------17--14--------------|
-------------14--15-------------|------14--15----------15--14------|
---------17---------------------|--17------------------------------|
--------------------------------|----------------------------------|


   H         H           W                   W                 
----------------------|-------------------|-------------------|
---L~-----------------|-------------------|-------------------|
----------------------|-------------------|-------------------|
----------------------|-------------------|-------------------|
----------------------|-------------------|-------------------|
----------------------|-------------------|-------------------|


  H        Q    Q       Q      E  Q    E  Q       W                  
-----------0----0----|--0----------------------|--------------------|
-----------5----6----|--5br----5---------------|--------------------|
---------------------|------------5----7--2----|--Lb----------------|
---------------------|-------------------------|--------------------|
---------------------|-------------------------|--------------------|
---------------------|-------------------------|--------------------|


  Q      E  Q    E  Q       E  E  E  E  Q    Q       Q      E  Q    E  Q     
--0----------------------|------------------------|--0----------------------|
--5br----5--3------------|------------------------|--5br----5---------------|
-----------------5--0----|--L--0--2--0--5----2----|------------5----7--2----|
-------------------------|------------------------|-------------------------|
-------------------------|------------------------|-------------------------|
-------------------------|------------------------|-------------------------|


  W                    Q      E  Q    E  Q       E  E  E  E  Q    Q     
--------------------|--0----------------------|------------------------|
--------------------|--5br----5--3------------|------------------------|
--Lb----------------|-----------------5--0----|--L--0--2--0--5----2----|
--------------------|-------------------------|------------------------|
--------------------|-------------------------|------------------------|
--------------------|-------------------------|------------------------|


  Q      E  Q    E  Q       W                    Q      E  Q    E  Q     
--0----------------------|--------------------|--0----------------------|
--5br----5---------------|--------------------|--5br----5--3------------|
------------5----7--2----|--Lb----------------|-----------------5--0----|
-------------------------|--------------------|-------------------------|
-------------------------|--------------------|-------------------------|
-------------------------|--------------------|-------------------------|


  E  E  E  E  Q    Q        E  E   E   E   E   E   E   E   
------------------------|---------------------------------|
------------------------|-----------------10--------------|
--L--0--2--0--5----2----|------9--10----------10------10--|
------------------------|--12---------12----------12------|
------------------------|---------------------------------|
------------------------|---------------------------------|


   E   E  E   E   E   E   E   E      E  E   E   E   E   E   E   E   
---------------------------------|---------------------------------|
-----------------10--------------|-----------------10--------------|
--12------9--10------12------12--|------9--10----------10------10--|
------12-----------------10------|--12---------12----------12------|
---------------------------------|---------------------------------|
---------------------------------|---------------------------------|


   E   E  E   E  Q      E   E      E  E   E   E   E   E   E   E   
-------------------------------|---------------------------------|
-------------------------------|-----------------10--------------|
--12------9------9br----L------|------9--10----------10------10--|
------12-----12------------10--|--12---------12----------12------|
-------------------------------|---------------------------------|
-------------------------------|---------------------------------|


   E   E  E   E   E   E   E   E      E  E   E   E   E   E   E   E   
---------------------------------|---------------------------------|
-----------------10--------------|-----------------10--------------|
--12------9--10------12------12--|------9--10----------10------10--|
------12-----------------10------|--12---------12----------12------|
---------------------------------|---------------------------------|
---------------------------------|---------------------------------|


   E   E  E   E  Q      E   E      E   E   E   E   Q      E   E   
-------------------------------|---------------------------------|
-------------------------------|---------------------------------|
--12------9------9br----L------|--------------17--14~------------|
------12-----12------------10--|------14--15-----------------14--|
-------------------------------|--17---------------------17------|
-------------------------------|---------------------------------|


   E   E   Q      E   E   E   E      Q      E   E   E   E   Q      
---------------------------------|--------------------------------|
---------------------------------|--------------------------------|
------17--14~----------------17--|--14~----------------17--14~----|
--15-----------------14--15------|-------------14--15-------------|
-----------------17--------------|---------17---------------------|
---------------------------------|--------------------------------|


   E   E   E   E   E   E   E   E      E  E   E   E   Q      E  E   
----------------------------------|-------------------------------|
------------------------------15--|-------------13--10~-----------|
--------------17--14--------------|------9--10-----------------9--|
------14--15----------15--14------|--12--------------------12-----|
--17------------------------------|-------------------------------|
----------------------------------|-------------------------------|


   E   E   Q      E   E   E   E      Q      E   E   E   E   Q      
---------------------------------|--------------------------------|
---------------------------------|--------------------------------|
------17--14~----------------17--|--14~----------------17--14~----|
--15-----------------14--15------|-------------14--15-------------|
-----------------17--------------|---------17---------------------|
---------------------------------|--------------------------------|


   E   E   E   E   E   E   E   E      E   E   E   E   Q      E   E   
----------------------------------|---------------------------------|
------------------------------15--|---------------------------------|
--------------17--14--------------|--------------17--14~------------|
------14--15----------15--14------|------14--15-----------------14--|
--17------------------------------|--17---------------------17------|
----------------------------------|---------------------------------|


   E   E   Q      E   E   E   E      Q      E   E   E   E   Q      
---------------------------------|--------------------------------|
---------------------------------|--------------------------------|
------17--14~----------------17--|--14~----------------17--14~----|
--15-----------------14--15------|-------------14--15-------------|
-----------------17--------------|---------17---------------------|
---------------------------------|--------------------------------|


   E   E   E   E   E   E   E   E      E   E   E   E   Q      E   E   
----------------------------------|---------------------------------|
------------------------------15--|---------------------------------|
--------------17--14--------------|--------------17--14~------------|
------14--15----------15--14------|------14--15-----------------14--|
--17------------------------------|--17---------------------17------|
----------------------------------|---------------------------------|


   E   E   Q      E   E   E   E     W                   W                 
---------------------------------|-------------------|-------------------|
---------------------------------|-------------------|-------------------|
------17--14~----------------17--|-------------------|-------------------|
--15-----------------14--15------|-------------------|-------------------|
-----------------17--------------|-------------------|-------------------|
---------------------------------|-------------------|-------------------|


   S  S S S  S S S  S S  S S  S S  S S  S  
------------------------------------------|
------------------------------------------|
---7p-0---5p-0-------------5p-0-----------|
--------0------0-7p-0-5p-0------7p-0-5p-0-|
------------------------------------------|
------------------------------------------|


   S  S S S  S S S  S S  S S  S S  S S  S  
------------------------------------------|
------------------------------------------|
---7p-0---5p-0-------------5p-0-----------|
--------0------0-7p-0-5p-0------7p-0-5p-0-|
------------------------------------------|
------------------------------------------|


   S  S S S  S S S  S S  S S  S S  S S  S  
------------------------------------------|
------------------------------------------|
---7p-0---5p-0-------------5p-0-----------|
--------0------0-7p-0-5p-0------7p-0-5p-0-|
------------------------------------------|
------------------------------------------|


   S  S S S  S S S  S S  S S  S S  S S  S  
------------------------------------------|
------------------------------------------|
---7p-0---5p-0-------------5p-0-----------|
--------0------0-7p-0-5p-0------7p-0-5p-0-|
------------------------------------------|
------------------------------------------|


   S  S S S  S S S  S S  S S  S S  S S  S  
------------------------------------------|
------------------------------------------|
---7p-0---5p-0-------------5p-0-----------|
--------0------0-7p-0-5p-0------7p-0-5p-0-|
------------------------------------------|
------------------------------------------|


   S  S S S  S S S  S S  S S  S S  S S  S  
------------------------------------------|
------------------------------------------|
---7p-0---5p-0-------------5p-0-----------|
--------0------0-7p-0-5p-0------7p-0-5p-0-|
------------------------------------------|
------------------------------------------|


   S  S S S  S S S  S S  S S  S S  S S  S  
------------------------------------------|
------------------------------------------|
---7p-0---5p-0-------------5p-0-----------|
--------0------0-7p-0-5p-0------7p-0-5p-0-|
------------------------------------------|
------------------------------------------|


   S  S S S  S S S  S S  S S  S S  S S  S  
------------------------------------------|
------------------------------------------|
---7p-0---5p-0-------------5p-0-----------|
--------0------0-7p-0-5p-0------7p-0-5p-0-|
------------------------------------------|
------------------------------------------|


   S  S S S  S S S  S S  S S  S S  S S  S  
------------------------------------------|
------------------------------------------|
---7p-0---5p-0-------------5p-0-----------|
--------0------0-7p-0-5p-0------7p-0-5p-0-|
------------------------------------------|
------------------------------------------|


   S  S S S  S S S  S S  S S  S S  S S  S  
------------------------------------------|
------------------------------------------|
---7p-0---5p-0-------------5p-0-----------|
--------0------0-7p-0-5p-0------7p-0-5p-0-|
------------------------------------------|
------------------------------------------|


   S  S S S  S S S  S S  S S  S S  S S  S  
------------------------------------------|
------------------------------------------|
---7p-0---5p-0-------------5p-0-----------|
--------0------0-7p-0-5p-0------7p-0-5p-0-|
------------------------------------------|
------------------------------------------|


   S  S S S  S S S  S S  S S  S S  S S  S    W                 
------------------------------------------|-------------------|
------------------------------------------|-------------------|
---7p-0---5p-0-------------5p-0-----------|-------------------|
--------0------0-7p-0-5p-0------7p-0-5p-0-|-------------------|
------------------------------------------|-------------------|
------------------------------------------|-------------------|


  H.             Q         E   E   E   E   Q      E   E   
-----------------------|---------------------------------|
-----------------------|---------------------------------|
-----------------------|--------------17--14~------------|
---------------/12\----|------14--15-----------------14--|
---------------/12\----|--17---------------------17------|
---------------/12\----|---------------------------------|


   E   E   Q      E   E   E   E      E  E   E   E   Q      E  E   
---------------------------------|-------------------------------|
---------------------------------|-------------13--10~-----------|
------17--14~----------------17--|------9--10-----------------9--|
--15-----------------14--15------|--12--------------------12-----|
-----------------17--------------|-------------------------------|
---------------------------------|-------------------------------|


   E   E   Q      E   E   E   E      Q      E   E   E   E   Q      
---------------------------------|--------------------------------|
---------------------------------|--------------------------------|
------17--14~----------------17--|--14~----------------17--14~----|
--15-----------------14--15------|-------------14--15-------------|
-----------------17--------------|---------17---------------------|
---------------------------------|--------------------------------|


   E   E   E   E   E   E   E   E      E   E   E   E   Q      E   E   
----------------------------------|---------------------------------|
------------------------------15--|---------------------------------|
--------------17--14--------------|--------------17--14~------------|
------14--15----------15--14------|------14--15-----------------14--|
--17------------------------------|--17---------------------17------|
----------------------------------|---------------------------------|


   E   E   Q      E   E   E   E      Q      E   E   E   E   Q      
---------------------------------|--------------------------------|
---------------------------------|--------------------------------|
------17--14~----------------17--|--14~----------------17--14~----|
--15-----------------14--15------|-------------14--15-------------|
-----------------17--------------|---------17---------------------|
---------------------------------|--------------------------------|


   E   E   E   E   E   E   E   E      E   E   E   E   Q      E   E   
----------------------------------|---------------------------------|
------------------------------15--|---------------------------------|
--------------17--14--------------|--------------17--14~------------|
------14--15----------15--14------|------14--15-----------------14--|
--17------------------------------|--17---------------------17------|
----------------------------------|---------------------------------|


   E   E   Q      E   E   E   E     E.  E.  E  E.  E.  E   
---------------------------------|------------------------|
---------------------------------|------------------------|
------17--14~----------------17--|------------------------|
--15-----------------14--15------|--0---0---0--0---0---0--|
-----------------17--------------|--0---0---0--0---0---0--|
---------------------------------|--0---0---0--0---0---0--|


                                    PM  PM  PM                          
  E  H        Q    E     E.  E.  E  E.  E.  E     E  H        Q    E    
----------------------|------------------------|----------------------||
----------------------|------------------------|----------------------||
----------------------|------------------------|----------------------||
--0-------------------|--0---0---0--0---0---0--|--0-------------------||
--0-------------------|--0---0---0--0---0---0--|--0-------------------||
--0-------------------|--0---0---0--0---0---0--|--0-------------------||




Beau



     W                   W                   W                 
D||-------------------|-------------------|-------------------|
A||-------------------|-------------------|-------------------|
F||-------------------|-------------------|-------------------|
C||-------------------|-------------------|-------------------|
G||-------------------|-------------------|-------------------|
C||-------------------|-------------------|-------------------|


  W                   W                   W                   W                 
-------------------|-------------------|-------------------|-----------------
-------------------|-------------------|-------------------|-----------------
-------------------|-------------------|-------------------|-----------------
-------------------|-------------------|-------------------|-----------------
-------------------|-------------------|-------------------|-----------------
-------------------|-------------------|-------------------|-----------------


   <                   ^                                     
   W                   W                   W                 
--------------------|--5----------------|--L----------------|
--------------------|--6----------------|--L----------------|
--------------------|--7----------------|--L----------------|
--------------------|--7----------------|--L----------------|
--12----------------|--5----------------|--L----------------|
--------------------|-------------------|-------------------|


  ^                                       ^                                     
                                                       
--1----------------|--L----------------|--5----------------|--L--------------
--1----------------|--L----------------|--6----------------|--L--------------
--3----------------|--L----------------|--7----------------|--L--------------
--3----------------|--L----------------|--7----------------|--L--------------
--1----------------|--L----------------|--5----------------|--L--------------
-------------------|-------------------|-------------------|-----------------


  ^                                       ^                                     
  W                   W                   W                   W                 
--1----------------|--L----------------|--5----------------|--L--------------
--1----------------|--L----------------|--6----------------|--L--------------
--3----------------|--L----------------|--7----------------|--L--------------
--3----------------|--L----------------|--7----------------|--L--------------
--1----------------|--L----------------|--5----------------|--L--------------
-------------------|-------------------|-------------------|-----------------


  ^                   ^                                          
  W                   W                   E.  E.  E  E.  E.  E   
--1----------------|--3----------------|------------------------|
--1----------------|--3----------------|------------------------|
--3----------------|--5----------------|--3---3---3--3---3---3--|
--3----------------|--5----------------|--3---3---3--3---3---3--|
--1----------------|--3----------------|--1---1---1--1---1---1--|
-------------------|-------------------|------------------------|


  E.  E.  E  E.  E.  E     E.  E.  E  E.  E.  E     E.  E.  E  E.  E.  E   
------------------------|------------------------|------------------------|
------------------------|--1---1---1--1---1---1--|------------------------|
--5---5---5--5---5---5--|--2---2---2--2---2---2--|--7---7---7--5---5---5--|
--5---5---5--5---5---5--|--2---2---2--2---2---2--|--7---7---7--5---5---5--|
--3---3---3--3---3---3--|--0---0---0--0---0---0--|--5---5---5--3---3---3--|
------------------------|------------------------|--0---0---0-------------|


  E.  E.  E  E.  E.  E     E.  E.  E  E.  E.  E     E.  E.  E  E.  E.  E   
------------------------|------------------------|------------------------|
------------------------|------------------------|--1---1---1--1---1---1--|
--3---3---3--3---3---3--|--5---5---5--5---5---5--|--2---2---2--2---2---2--|
--3---3---3--3---3---3--|--5---5---5--5---5---5--|--2---2---2--2---2---2--|
--1---1---1--1---1---1--|--3---3---3--3---3---3--|--0---0---0--0---0---0--|
------------------------|------------------------|------------------------|


  E.  E.  E  E.  E.  E     E  E  E  E  E  E  E  E     E  E  E  E  E  E  E  E   
------------------------|--------------------------|-------------------------
------------------------|--------------------------|-------------------------
--7---7---7--5---5---5--|--3--3--3--3--3--3--3--3--|--5--5--5--5--5--5--5--5-
--7---7---7--5---5---5--|--3--3--3--3--3--3--3--3--|--5--5--5--5--5--5--5--5-
--5---5---5--3---3---3--|--1--1--1--1--1--1--1--1--|--3--3--3--3--3--3--3--3-
--0---0---0-------------|--------------------------|-------------------------


  E  E  E  E  E  E  E  E     E  E  E  E  E   E   E   E   
--------------------------|-----------------------------|
--------------------------|-----------------------------|
--7--7--7--7--7--7--7--7--|--7--7--7--7--7--10--10--10--|
--7--7--7--7--7--7--7--7--|--7--7--7--7--7--10--10--10--|
--5--5--5--5--5--5--5--5--|--5--5--5--5--5---8---8---8--|
--------------------------|-----------------------------|


  E  E  E  E  E  E  E  E     E  E  E  E  E  E  E  E   
--------------------------|--------------------------|
--------------------------|--------------------------|
--3--3--3--3--3--3--3--3--|--5--5--5--5--5--5--5--5--|
--3--3--3--3--3--3--3--3--|--5--5--5--5--5--5--5--5--|
--1--1--1--1--1--1--1--1--|--3--3--3--3--3--3--3--3--|
--------------------------|--------------------------|


  E  E  E  E  E  E  E  E     E  E  E  E  E  E  E  E     W                 
--------------------------|--------------------------|-------------------|
--------------------------|--------------------------|-------------------|
--7--7--7--7--7--7--7--7--|--5--5--5--5--5--5--5--5--|-------------------|
--7--7--7--7--7--7--7--7--|--5--5--5--5--5--5--5--5--|--0----------------|
--5--5--5--5--5--5--5--5--|--3--3--3--3--3--3--3--3--|--0----------------|
--------------------------|--------------------------|--0----------------|


                                                              ^                 
  W                   W                   W                   W                 
-------------------|-------------------|-------------------|--5--------------
-------------------|-------------------|-------------------|--6--------------
-------------------|-------------------|-------------------|--7--------------
--L----------------|--L----------------|--L----------------|--7--------------
--L----------------|--L----------------|--L----------------|--5--------------
--L----------------|--L----------------|--L----------------|-----------------


                      ^                                       ^                 
  W                   W                   W                   W                 
--L----------------|--1----------------|--L----------------|--5--------------
--L----------------|--1----------------|--L----------------|--6--------------
--L----------------|--3----------------|--L----------------|--7--------------
--L----------------|--3----------------|--L----------------|--7--------------
--L----------------|--1----------------|--L----------------|--5--------------
-------------------|-------------------|-------------------|-----------------


                      ^                                       ^                 
  W                   W                   W                   W                 
--L----------------|--1----------------|--L----------------|--5--------------
--L----------------|--1----------------|--L----------------|--6--------------
--L----------------|--3----------------|--L----------------|--7--------------
--L----------------|--3----------------|--L----------------|--7--------------
--L----------------|--1----------------|--L----------------|--5--------------
-------------------|-------------------|-------------------|-----------------


                      ^                   ^                 
  W                   W                   W                 
--L----------------|--1----------------|--3----------------|
--L----------------|--1----------------|--3----------------|
--L----------------|--3----------------|--5----------------|
--L----------------|--3----------------|--5----------------|
--L----------------|--1----------------|--3----------------|
-------------------|-------------------|-------------------|


  E.  E.  E  E.  E.  E     E.  E.  E  E.  E.  E     E.  E.  E  E.  E.  E   
------------------------|------------------------|------------------------|
------------------------|------------------------|--1---1---1--1---1---1--|
--3---3---3--3---3---3--|--5---5---5--5---5---5--|--2---2---2--2---2---2--|
--3---3---3--3---3---3--|--5---5---5--5---5---5--|--2---2---2--2---2---2--|
--1---1---1--1---1---1--|--3---3---3--3---3---3--|--0---0---0--0---0---0--|
------------------------|------------------------|------------------------|


  E.  E.  E  E.  E.  E     E.  E.  E  E.  E.  E     E.  E.  E  E.  E.  E   
------------------------|------------------------|------------------------|
------------------------|------------------------|------------------------|
--7---7---7--5---5---5--|--3---3---3--3---3---3--|--5---5---5--5---5---5--|
--7---7---7--5---5---5--|--3---3---3--3---3---3--|--5---5---5--5---5---5--|
--5---5---5--3---3---3--|--1---1---1--1---1---1--|--3---3---3--3---3---3--|
--0---0---0-------------|------------------------|------------------------|


  E.  E.  E  E.  E.  E     E.  E.  E  E.  E.  E     E  E  E  E  E  E  E  E   
------------------------|------------------------|--------------------------|
--1---1---1--1---1---1--|------------------------|--------------------------|
--2---2---2--2---2---2--|--7---7---7--5---5---5--|--3--3--3--3--3--3--3--3--|
--2---2---2--2---2---2--|--7---7---7--5---5---5--|--3--3--3--3--3--3--3--3--|
--0---0---0--0---0---0--|--5---5---5--3---3---3--|--1--1--1--1--1--1--1--1--|
------------------------|--0---0---0-------------|--------------------------|


  E  E  E  E  E  E  E  E     E  E  E  E  E  E  E  E   
--------------------------|--------------------------|
--------------------------|--------------------------|
--5--5--5--5--5--5--5--5--|--7--7--7--7--7--7--7--7--|
--5--5--5--5--5--5--5--5--|--7--7--7--7--7--7--7--7--|
--3--3--3--3--3--3--3--3--|--5--5--5--5--5--5--5--5--|
--------------------------|--------------------------|


  E  E  E  E  E   E   E   E     E  E  E  E  E  E  E  E   
-----------------------------|--------------------------|
-----------------------------|--------------------------|
--7--7--7--7--7--10--10--10--|--3--3--3--3--3--3--3--3--|
--7--7--7--7--7--10--10--10--|--3--3--3--3--3--3--3--3--|
--5--5--5--5--5---8---8---8--|--1--1--1--1--1--1--1--1--|
-----------------------------|--------------------------|


  E  E  E  E  E  E  E  E     E  E  E  E  E  E  E  E   
--------------------------|--------------------------|
--------------------------|--------------------------|
--5--5--5--5--5--5--5--5--|--7--7--7--7--7--7--7--7--|
--5--5--5--5--5--5--5--5--|--7--7--7--7--7--7--7--7--|
--3--3--3--3--3--3--3--3--|--5--5--5--5--5--5--5--5--|
--------------------------|--------------------------|


  E  E  E  E  E  E  E  E     E  E  E  E  E  E  E  E   
--------------------------|--------------------------|
--------------------------|--------------------------|
--5--5--5--5--5--5--5--5--|--3--3--3--3--3--3--3--3--|
--5--5--5--5--5--5--5--5--|--3--3--3--3--3--3--3--3--|
--3--3--3--3--3--3--3--3--|--1--1--1--1--1--1--1--1--|
--------------------------|--------------------------|


  E  E  E  E  E  E  E  E     E  E  E  E  E  E  E  E   
--------------------------|--------------------------|
--------------------------|--------------------------|
--5--5--5--5--5--5--5--5--|--7--7--7--7--7--7--7--7--|
--5--5--5--5--5--5--5--5--|--7--7--7--7--7--7--7--7--|
--3--3--3--3--3--3--3--3--|--5--5--5--5--5--5--5--5--|
--------------------------|--------------------------|


  E  E  E  E  E   E   E   E     E  E  E  E  E  E  E  E   
-----------------------------|--------------------------|
-----------------------------|--------------------------|
--7--7--7--7--7--10--10--10--|--3--3--3--3--3--3--3--3--|
--7--7--7--7--7--10--10--10--|--3--3--3--3--3--3--3--3--|
--5--5--5--5--5---8---8---8--|--1--1--1--1--1--1--1--1--|
-----------------------------|--------------------------|


  E  E  E  E  E  E  E  E     E  H        Q    E     W                 
--------------------------|----------------------|-------------------|
--------------------------|----------------------|-------------------|
--5--5--5--5--5--5--5--5--|----------------------|-------------------|
--5--5--5--5--5--5--5--5--|--0-------------------|-------------------|
--3--3--3--3--3--3--3--3--|--0-------------------|-------------------|
--------------------------|--0-------------------|-------------------|


  E.  E.  E  E.  E.  E     E  H        Q    E     E.  E.  E  E.  E.  E   
------------------------|----------------------|------------------------|
------------------------|----------------------|------------------------|
------------------------|----------------------|------------------------|
--0---0---0--0---0---0--|--0-------------------|--0---0---0--0---0---0--|
--0---0---0--0---0---0--|--0-------------------|--0---0---0--0---0---0--|
--0---0---0--0---0---0--|--0-------------------|--0---0---0--0---0---0--|


  E  H        Q    E     E.  E.  E  E.  E.  E     E.  E.  E  E.  E.  E   
----------------------|------------------------|------------------------|
----------------------|------------------------|------------------------|
----------------------|------------------------|------------------------|
--0-------------------|--8---8---8--8---8---8--|--8---8---8--8---8---8--|
--0-------------------|--8---8---8--8---8---8--|--8---8---8--8---8---8--|
--0-------------------|--8---8---8--8---8---8--|--8---8---8--8---8---8--|


  E.  E.  E  E.  E.  E     E  H        Q    E     E.  E.  E  E.  E.  E   
------------------------|----------------------|------------------------|
------------------------|----------------------|------------------------|
------------------------|----------------------|------------------------|
--0---0---0--0---0---0--|--0-------------------|--0---0---0--0---0---0--|
--0---0---0--0---0---0--|--0-------------------|--0---0---0--0---0---0--|
--0---0---0--0---0---0--|--0-------------------|--0---0---0--0---0---0--|


  E  H        Q    E     E.  E.  E  E.  E.  E     E.  E.  E  E.  E.  E   
----------------------|------------------------|------------------------|
----------------------|------------------------|------------------------|
----------------------|------------------------|------------------------|
--0-------------------|--8---8---8--8---8---8--|--8---8---8--8---8---8--|
--0-------------------|--8---8---8--8---8---8--|--8---8---8--8---8---8--|
--0-------------------|--8---8---8--8---8---8--|--8---8---8--8---8---8--|


  E  E  E  E  E  E  E  E     E  E  E  E  E  E  E  E   
--------------------------|--------------------------|
--------------------------|--------------------------|
--3--3--3--3--3--3--3--3--|--5--5--5--5--5--5--5--5--|
--3--3--3--3--3--3--3--3--|--5--5--5--5--5--5--5--5--|
--1--1--1--1--1--1--1--1--|--3--3--3--3--3--3--3--3--|
--------------------------|--------------------------|


  E  E  E  E  E  E  E  E     E  E  E  E  E  E  E  E   
--------------------------|--------------------------|
--------------------------|--------------------------|
--7--7--7--7--7--7--7--7--|--5--5--5--5--5--5--5--5--|
--7--7--7--7--7--7--7--7--|--5--5--5--5--5--5--5--5--|
--5--5--5--5--5--5--5--5--|--3--3--3--3--3--3--3--3--|
--------------------------|--------------------------|


  E  E  E  E  E  E  E  E     E  E  E  E  E  E  E  E   
--------------------------|--------------------------|
--------------------------|--------------------------|
--3--3--3--3--3--3--3--3--|--5--5--5--5--5--5--5--5--|
--3--3--3--3--3--3--3--3--|--5--5--5--5--5--5--5--5--|
--1--1--1--1--1--1--1--1--|--3--3--3--3--3--3--3--3--|
--------------------------|--------------------------|


  E  E  E  E  E  E  E  E     E  E  E  E  E  E  E  E   
--------------------------|--------------------------|
--------------------------|--------------------------|
--7--7--7--7--7--7--7--7--|--5--5--5--5--5--5--5--5--|
--7--7--7--7--7--7--7--7--|--5--5--5--5--5--5--5--5--|
--5--5--5--5--5--5--5--5--|--3--3--3--3--3--3--3--3--|
--------------------------|--------------------------|


  E  E  E  E  E  E  E  E     E  E  E  E  E  E  E  E   
--------------------------|--------------------------|
--------------------------|--------------------------|
--3--3--3--3--3--3--3--3--|--5--5--5--5--5--5--5--5--|
--3--3--3--3--3--3--3--3--|--5--5--5--5--5--5--5--5--|
--1--1--1--1--1--1--1--1--|--3--3--3--3--3--3--3--3--|
--------------------------|--------------------------|


  E  E  E  E  E  E  E  E     E  E  E  E  E   E   E   E   
--------------------------|-----------------------------|
--------------------------|-----------------------------|
--7--7--7--7--7--7--7--7--|--7--7--7--7--7--10--10--10--|
--7--7--7--7--7--7--7--7--|--7--7--7--7--7--10--10--10--|
--5--5--5--5--5--5--5--5--|--5--5--5--5--5---8---8---8--|
--------------------------|-----------------------------|


  E  E  E  E  E  E  E  E     E  E  E  E  E  E  E  E     E.  E.  E  E.  E.  E   
--------------------------|--------------------------|-----------------------
--------------------------|--------------------------|-----------------------
--3--3--3--3--3--3--3--3--|--5--5--5--5--5--5--5--5--|-----------------------
--3--3--3--3--3--3--3--3--|--5--5--5--5--5--5--5--5--|--0---0---0--0---0---0-
--1--1--1--1--1--1--1--1--|--3--3--3--3--3--3--3--3--|--0---0---0--0---0---0-
--------------------------|--------------------------|--0---0---0--0---0---0-


                                    PM  PM  PM                          
  E  H        Q    E     E.  E.  E  E.  E.  E     E  H        Q    E    
----------------------|------------------------|----------------------||
----------------------|------------------------|----------------------||
----------------------|------------------------|----------------------||
--0-------------------|--0---0---0--0---0---0--|--0-------------------||
--0-------------------|--0---0---0--0---0---0--|--0-------------------||
--0-------------------|--0---0---0--0---0---0--|--0-------------------||




Duration Legend
---------------
W - whole
H - half
Q - quarter
E - 8th
S - 16th
T - 32nd
X - 64th
. - note dotted
|-n-|  - n-tuplets


Tablature Legend
----------------
L - tied note
x - dead note
g - grace note
(n) - ghost note
> - accentuded note
NH - natural harmonic
AH - artificial harmonic
TH - tapped harmonic
SH - semi harmonic
PH - pitch harmonic
h - hammer on
p - pull off
b - bend
br - bendRelease
pb - preBend
pbr - preBendRelease
brb - bendReleaseBend
\n/ - tremolo bar dip
\n - tremolo bar dive
-/n - tremolo bar Release up
/n\ - tremolo bar inverted dip
/n - tremolo bar return
-\n - tremolo bar Release down
S - shift slide
s - legato slide
/ -  slide into from below or out of upwards
\ -  slide into from above or out of downwards
~ - vibrato
W - wide vibrato
tr - trill
TP - tremolo picking
T - tapping
S - slap
P - pop
< - fade in
^ - brush up
v - brush down
comments
We did not receive enough feedback on this tab! Please rate:
print report bad tab
1 2 3 4 5
1 comment total.
0 reply
Sam Rulez D00d wrote on January 6 2009, 05:37 pm

this is great! its way better than mine(ver1).

I want to post or [tab]
guest
You may want to rate the tab now too:
select rating
Please do not post tabs as comments. Select "correction" instead!