Oops, an error
Loading. Please wait.

Ive Been Dying To Reach You Bass Tab

1,145 views 1 this week
no commentswrite comment
1 2 3 4 5
excellent!
x 2
Autoscroll
+/-
esc
set tempo
stop
Contributor
Difficulty
novice
WARNING: You are trying to view
                                    content from Ultimate-Guitar.com
                                    in an unauthorized application,
                                    which is prohibited.

                                    Please use an official Ultimate
                                    Guitar Tabs application for iPhone,
                                    iPad or Android to access legitimate
                                    chords, guitar, bass, and drum tabs
                                    from Ultimate-Guitar.com database.

                                    Type "ultimate guitar tabs" in Apple
                                    App Store's or Android Market's
                                    search to find the application.
This one is fun and easy

Saosin- I've been dying to reach you

"Dear child, they're askin us to move.."
1.
G|--------------------------------------|
D|--------------------------------------|
A|-4-4-4-4-4-4-4-4-4-4-4-4-4-4-4-4------|
E|--------------------------------------|

"Let the shore tide take you in.."
2.
G|----------------------------------------|
D|----------------------------------------|
A|-----------------12-12-12-12-12-12-12-12|
E|-5-5-5-5-5-5-5-5------------------------|

"Unwary, I'm not quite rusty yet.."
3.
G|-----------------|----------------------|
D|-----------------|----------------------|
A|-4-4-9-7-4-7-9-11|-4-4-9-7-4-2-4-6------|
E|-----------------|----------------------|

"Let the shore tide take you in.."
4.
G|----------------------------------------|
D|----------------------------------------|
A|-----------------12-12-12-12-12-12-12-12|
E|-5-5-5-5-5-5-5-5------------------------|

"In this short time.."
5.
G|----------------------------------------|
D|----------------------------------------|
A|-------------2-4-----2-4-9-7-4-6--------|
E|-2-2-2-2-2-2-----2-2--------------------|

Chorus
"I've been tryin to reach you.." x2
6.
G|-------------------------------------------|
D|-------------------------------------------|
A|-7777777777-4444444444---------------------|
E|----------------------4444444444-5555555555|

"Dear sleeper, you could have had a better bed.."
7.
G|--------------------------------------|
D|--------------------------------------|
A|-4-4-4-4-4-4-4-4-4-4-4-4-4-4-4-4------|
E|--------------------------------------|

"We're out, we're out the door.."
8.
G|----------------------------------------|
D|----------------------------------------|
A|-----------------12-12-12-12-12-12-12-12|
E|-5-5-5-5-5-5-5-5------------------------|

Chorus
"I've been tryin to reach you.." x2
9.
G|-------------------------------------------|
D|-------------------------------------------|
A|-7777777777-4444444444---------------------|
E|----------------------4444444444-5555555555|

"In this coma, sleepless dancing.."
10.
G|----------------------------------------------------|
D|----------------------------------------------------|
A|----------------------------------------------------|
E|-4-4-4-4-4-4-4-4-5-5-5-5-5-5-5-5-4-4-4-4-4-4-4-4-5~-|

Then comes the chorus for a lot of times :D
There you go.. Easy !
Please rate it

And here are the lyrics

____________________________

Dear child, they're asking us to move 
I watched her taking off her shoe 
Let the shore tide take you in, let the shore tide in
Unwary i'm not quite rusty yet 
This could be obvious to you 
Let the shore tide take you in, let the shore tide in
In this short time we've been setting up 

I've bee trying to reach you, but my extension cord 
wouldn't reach that far 
Now you've lost your chance
I've been patiently waiting 
The indicator light is flashing on 
Now you've lost your chance

Dear sleeper you could've had the better bed 
I loved to watch the way you grew 
We're out, we're out the door 
We're out, we're out the door 
In this short time we've been setting up 

I've been trying to reach your but your extension cord 
doesn't reach that far 
Doesn't reach that far.. Reach that far
I've been patiently waiting 
the indicator light is flashing on 
Flashing on 
Flashing on 

In this coma, sleepless dancing 
We've been trying now 

________________________

RaiLeff
Underground_Dora@hotmail.com
comments
We did not receive enough feedback on this tab! Please rate:
1 2 3 4 5
I want to post or [tab]
guest
You may want to rate the tab now too:
select rating
Please do not post tabs as comments. Select "correction" instead!