Oops, an error
Loading. Please wait.

Si Amaneciera Tab

ver2
ver2

Whole song

More versions @911Tabs.com
5,984 views 3 this week
no commentswrite comment
1 2 3 4 5
please rate
Autoscroll
+/-
esc
set tempo
stop
Difficulty
Tuning
intermediate
B E A D F# B
WARNING: You are trying to view
                                    content from Ultimate-Guitar.com
                                    in an unauthorized application,
                                    which is prohibited.

                                    Please use an official Ultimate
                                    Guitar Tabs application for iPhone,
                                    iPad or Android to access legitimate
                                    chords, guitar, bass, and drum tabs
                                    from Ultimate-Guitar.com database.

                                    Type "ultimate guitar tabs" in Apple
                                    App Store's or Android Market's
                                    search to find the application.
Saratoga
Si Amaneciera                                     

(Ac├║stica)

      E.             Q     S  E.    S  S  S  S S  
D#||-----------------5-----L--4--------5p-4p-0---|
A#||--2-------------(7)------(0)---(0)---------0-|
F#||---------------------------------------------|
C#||---------------------------------------------|
G#||---------------------------------------------|
D#||---------------------------------------------|


                      ^                                                    
   E.   T  T S S S S  Q     S S S S    S  S S E  E  S S S S  S  S S S. T   
---2----2p-0---0-2-5--0-----0---2-0-|-------5-5--2----5-2---(2)-5-2-------|
-------------3-------(2)------2-----|--0s-3---------3-----3---------3--3s-|
--(2)----------------(2)------------|-------------------------------------|
------------------------------------|-------------------------------------|
------------------------------------|-------------------------------------|
------------------------------------|-------------------------------------|


  E  S E  E  S H           E.   Q     S  E.    S  S  S  S S  
-----7-7--4----7--------|-------5-----L--4--------5p-4p-0---|
--5----------5----------|--2---(7)------(0)---(0)---------0-|
------------------------|-----------------------------------|
------------------------|-----------------------------------|
------------------------|-----------------------------------|
------------------------|-----------------------------------|


                      ^                                                    
   E.   T  T S S S S  Q     S S S S    S  S S E  E  S S S S  S  S S S. T   
---2----2p-0---0-2-5--0-----0---2-0-|-------5-5--2----5-2---(2)-5-2-------|
-------------3-------(2)------2-----|--0s-3---------3-----3---------3--3s-|
--(2)----------------(2)------------|-------------------------------------|
------------------------------------|-------------------------------------|
------------------------------------|-------------------------------------|
------------------------------------|-------------------------------------|


                            Dejar sonar...                            
  E  S E  E  S H            E             S S S  S E  E  S S S  E.    
-----7-7--4----7--------|--------------------------0------------3----|
--5----------5----------|---1-----------------1h-3----3------3-(3)---|
------------------------|-------------------2------------------------|
------------------------|-----------------2----------------5---------|
------------------------|--(0)--------------L-0-------L--5-----------|
------------------------|-----------------------------3---------L----|


  S  S S S T  T  S S S S S S S Q        E   S S S  S E  E  S S S  E.    
--0h-1-----1h-3p-1------------------|----------------0------------3----|
-------3-----------3-----------0----|---1-------1h-3----3------3-(3)---|
---------2-----------2-------1------|---------2------------------------|
--0------L-----------L-----2--------|-------2----------------5---------|
-------------------------2----------|--(0)----L-0-------L--5-----------|
-----------------------0------------|-------------------3---------L----|


  S  S S S T  T  S S S S S S S Q       E  S  S  E  E  E  S  S  S  E.    
--0h-1-----1h-3p-1------------------|-----------0-----------------3----|
-------3-----------3-----------0----|--1-----------1--3--------3-(3)---|
---------2-----------2-------1------|-----0--------------0-------------|
--0------L-----------L-----2--------|-------(2)------------(0)---------|
-------------------------2----------|--3-------------------------------|
-----------------------0------------|-----------------3----------------|


  E  E  S S E  S S S S S  S  E     E  S  S  E  E  E  S  S  S  E.    
------------1----------------0--|-----------0-----------------3----|
--1-------1------------0--------|--1-----------1--3--------3-(3)---|
--------2-----------------------|-----0--------------0-------------|
-----3-------------2-----(2)----|-------(2)------------(0)---------|
-----------------2---2----------|--3-------------------------------|
--1------------0----------------|-----------------3----------------|


  E  E  S S E  S S S S Q        E   S S S  S E  E  S S S  E.    
------------1---------------|----------------0------------3----|
--1-------1------------0----|---1-------1h-3----3------3-(3)---|
--------2------------1------|---------2------------------------|
-----3-------------2--------|-------2----------------5---------|
-----------------2----------|--(0)----L-0-------L--5-----------|
--1------------0------------|-------------------3---------L----|


  S  S S S T  T  S S S S S S S Q        E   S S S  S E  E  S S S  E.    
--0h-1-----1h-3p-1------------------|----------------0------------3----|
-------3-----------3-----------0----|---1-------1h-3----3------3-(3)---|
---------2-----------2-------1------|---------2------------------------|
--0------L-----------L-----2--------|-------2----------------5---------|
-------------------------2----------|--(0)----L-0-------L--5-----------|
-----------------------0------------|-------------------3---------L----|


  S  S S S T  T  S S S S S S S Q       E  S  S  E  E  E  S  S  S  E.    
--0h-1-----1h-3p-1------------------|-----------0-----------------3----|
-------3-----------3-----------0----|--1-----------1--3--------3-(3)---|
---------2-----------2-------1------|-----0--------------0-------------|
--0------L-----------L-----2--------|-------(2)------------(0)---------|
-------------------------2----------|--3-------------------------------|
-----------------------0------------|-----------------3----------------|


  E  E  S S E  S S S S S  S  E     E  S  S  E  E  E  S  S  S  E.    
------------1----------------0--|-----------0-----------------3----|
--1-------1------------0--------|--1-----------1--3--------3-(3)---|
--------2-----------------------|-----0--------------0-------------|
-----3-------------2-----(2)----|-------(2)------------(0)---------|
-----------------2---2----------|--3-------------------------------|
--1------------0----------------|-----------------3----------------|


  E  E  S S E  S S S S S S S S    S S S S S S E     E  S  S  S S  E   E  E  E  E   
------------1------------------|-----------------|-------------2---------------0--|
--1-------1--------------------|-----------------|-2-------2--------0-----0|
--------2----------------------|-----------------|-------------------------|
-----3-------------2-------2---|------2-------2--|----4--------(4)-----2---|
-----------------2---2---2---2-|----2---2---2----|-------(4)---------------|
--1------------0-------0-------|--0-------0------|-2----------------0------|


  E   E   T  T  S S S S S S S Q       E  S S S S S  S  E  S S T  T  S S S  
--2-------2h-4p-2-------------4----|---------2---------2------2h-4p-2-----|
------------------3---------5------|-----------3----------3-----------3---|
-----(2)------------2-----6--------|--4----------4----------2-----------2-|
--0---------------------6----------|-----4---------(4)-0------------------|
----------------------4------------|--2----2------------------------------|
-----------------------------------|--------------------------------------|


                                                   ^               
  S S S S S S S S S S S S S S S S    E   E   S  S  E  E  E  E  E   
----------------------------------|--2---------(2)-2--0-----0-----|
------6-------6-------6-------6---|----------2-----2-----------0--|
----------------------------------|-------------------------------|
----6---6---6---6---6---6---6---6-|-----(4)--------------2--------|
--4-------4-------4-------4-------|-------------------------------|
----------------------------------|--2----------------0-----------|


  E  S  S  T  T  S S S S S S S S  S   E      S S S S S S S S S S S S S S S S  
--2--------2h-4p-2-------------4----------|--------------------------------|
-------------------3---------5---(5)------|------3-------3-------3-------3-|
-----2---------------2-----6---------(6)--|--------------------------------|
--0----(0)---------------6----------------|----4---4---4---4---4---4---4--4|
-----------------------4------------------|--2-------2-------2-------2-----|
------------------------------------------|--------------------------------|


  S S S S S S S S S S S S S S S S     E.    Q     S  E.    S  S  S  S S  
------3-------3-------3-------3---|---------5-----L--4--------5p-4p-0---|
----------------------------------|---2----(7)------(0)---(0)---------0-|
----------------------------------|-------------------------------------|
----0---0---0---0---0---0---0---0-|-------------------------------------|
----------------------------------|-------------------------------------|
--3-------3-------3-------3-------|--(2)--------------------------------|


                      ^                                                   
   E.   T  T S S S S  Q     S S S S       E   S E  E  S S S E  S S S. T   
---2----2p-0---0-2-5--0-----0---2-0-|---------5-5--2----5-2----5-2-------|
-------------3-------(2)------2-----|---2g3-----------3-----3------3--3s-|
--(2)----------------(2)------------|--2g(4)-----------------------------|
------------------------------------|------------------------------------|
------------------------------------|------------------------------------|
------------------------------------|------------------------------------|


                           ^    ^    ^    ^       ^    ^    ^    ^     
  E  S E  E  S H           Q    Q    Q    Q       Q    Q    Q    Q     
-----7-7--4----7--------|-------0---------3----|-------1--------------|
--5----------5----------|--1----1---------3----|--3----3---------0----|
------------------------|--2----2----0----0----|--2----2---------1----|
------------------------|--2----2----0----0----|--0----0----2----2----|
------------------------|--0---------2---------|------------2----2----|
------------------------|------------3---------|------------0---------|


  ^    ^    ^    ^       ^    ^    ^    ^       ^    ^    ^    ^     
  Q    Q    Q    Q       Q    Q    Q    Q       Q    Q    Q    Q     
-------0---------3----|-------1--------------|-------0---------3----|
--1----1---------3----|--3----3---------0----|--1----1----3----3----|
--2----2----0----0----|--2----2---------1----|--0----0----0----0----|
--2----2----0----0----|--0----0----2----2----|--2----2----0----0----|
--0---------2---------|------------2----2----|--3----3----2----2----|
------------3---------|------------0---------|------------3---------|


  ^    ^    ^    ^       ^    ^    ^    ^       ^    ^    ^    ^     
  Q    Q    Q    Q       Q    Q    Q    Q       Q    Q    Q    Q     
-------1---------0----|-------0---------3----|-------1---------0----|
--1----1----0----0----|--1----1----3----3----|--1----1----0----0----|
--2----2----1----1----|--0----0----0----0----|--2----2----1----1----|
--3----3----2----2----|--2----2----0----0----|--3----3----2----2----|
--3----3----2----2----|--3----3----2----2----|--3----3----2----2----|
--1---------0---------|------------3---------|--1---------0---------|


  ^    ^    ^    ^       ^    ^    ^    ^       ^    ^    ^    ^     
  Q    Q    Q    Q       Q    Q    Q    Q       Q    Q    Q    Q     
-------0---------3----|-------1--------------|-------0---------3----|
--1----1---------3----|--3----3---------0----|--1----1---------3----|
--2----2----0----0----|--2----2---------1----|--2----2----0----0----|
--2----2----0----0----|--0----0----2----2----|--2----2----0----0----|
--0---------2---------|------------2----2----|--0---------2---------|
------------3---------|------------0---------|------------3---------|


  ^    ^    ^    ^       ^    ^    ^    ^       ^    ^    ^    ^     
  Q    Q    Q    Q       Q    Q    Q    Q       Q    Q    Q    Q     
-------1--------------|-------0---------3----|-------1---------0----|
--3----3---------0----|--1----1----3----3----|--1----1----0----0----|
--2----2---------1----|--0----0----0----0----|--2----2----1----1----|
--0----0----2----2----|--2----2----0----0----|--3----3----2----2----|
------------2----2----|--3----3----2----2----|--3----3----2----2----|
------------0---------|------------3---------|--1---------0---------|


  ^    ^    ^    ^       ^    ^    ^  ^  ^  ^     ^  ^  ^  ^                     
  Q    Q    Q    Q       Q    Q    E  E  E  E     E  E  E  E                     
-------0---------3----|-------1----0--0--0--0--|--0--0--0--0--|-----|-----|-----|
--1----1----3----3----|--1----1----0--0--0--0--|--0--0--0--0--|-----|-----|-----|
--0----0----0----0----|--2----2----1--1--1--1--|--1--1--1--1--|-----|-----|-----|
--2----2----0----0----|--3----3----2--2--2--2--|--2--2--2--2--|-----|-----|-----|
--3----3----2----2----|--3----3----2--2--2--2--|--2--2--2--2--|-----|-----|-----|
------------3---------|--1---------0--0--0--0--|--0--0--0--0--|-----|-----|-----|


                                 E.    Q     S  E.    S  S  S  S S  
-----|-----|-----|-----|-----|---------5-----L--4--------5p-4p-0---|
-----|-----|-----|-----|-----|---2----(7)------(0)---(0)---------0-|
-----|-----|-----|-----|-----|-------------------------------------|
-----|-----|-----|-----|-----|-------------------------------------|
-----|-----|-----|-----|-----|-------------------------------------|
-----|-----|-----|-----|-----|--(2)--------------------------------|


                      ^                                                   
   E.   T  T S S S S  Q     S S S S       E   S E  E  S S S E  S S S. T   
---2----2p-0---0-2-5--0-----0---2-0-|---------5-5--2----5-2----5-2-------|
-------------3-------(2)------2-----|---2g3-----------3-----3------3--3s-|
--(2)----------------(2)------------|--2g(4)-----------------------------|
------------------------------------|------------------------------------|
------------------------------------|------------------------------------|
------------------------------------|------------------------------------|


  E  S E  E  S H                                                                     
-----7-7--4----7--------|-----------|-----------|-----------|-----------|-----------|
--5----------5----------|-----------|-----------|-----------|-----------|-----------|
------------------------|-----------|-----------|-----------|-----------|-----------|
------------------------|-----------|-----------|-----------|-----------|-----------|
------------------------|-----------|-----------|-----------|-----------|-----------|
------------------------|-----------|-----------|-----------|-----------|-----------|


-----------|-----------|-----------|-----------|-----------|-----------|-----------|
-----------|-----------|-----------|-----------|-----------|-----------|-----------|
-----------|-----------|-----------|-----------|-----------|-----------|-----------|
-----------|-----------|-----------|-----------|-----------|-----------|-----------|
-----------|-----------|-----------|-----------|-----------|-----------|-----------|
-----------|-----------|-----------|-----------|-----------|-----------|-----------|


-----------|-----------|-----------|-----------|-----------|-----------|-----------|
-----------|-----------|-----------|-----------|-----------|-----------|-----------|
-----------|-----------|-----------|-----------|-----------|-----------|-----------|
-----------|-----------|-----------|-----------|-----------|-----------|-----------|
-----------|-----------|-----------|-----------|-----------|-----------|-----------|
-----------|-----------|-----------|-----------|-----------|-----------|-----------|


-----------|-----------|-----------|-----------|-----------|-----------|-----------|
-----------|-----------|-----------|-----------|-----------|-----------|-----------|
-----------|-----------|-----------|-----------|-----------|-----------|-----------|
-----------|-----------|-----------|-----------|-----------|-----------|-----------|
-----------|-----------|-----------|-----------|-----------|-----------|-----------|
-----------|-----------|-----------|-----------|-----------|-----------|-----------|


-----------|-----------|-----------|-----------|-----------|-----------|-----------|
-----------|-----------|-----------|-----------|-----------|-----------|-----------|
-----------|-----------|-----------|-----------|-----------|-----------|-----------|
-----------|-----------|-----------|-----------|-----------|-----------|-----------|
-----------|-----------|-----------|-----------|-----------|-----------|-----------|
-----------|-----------|-----------|-----------|-----------|-----------|-----------|


                                                                      ^              
              E.   Q     S  E.    S  S  S  S S     E.   T  T S S S S  Q     S S S S  
-----------|-------5-----L--4--------5p-4p-0---|---2----2p-0---0-2-5--0-----0---2-0-|
-----------|--2---(7)------(0)---(0)---------0-|-------------3-------(2)------2-----|
-----------|-----------------------------------|--(2)----------------(2)------------|
-----------|-----------------------------------|------------------------------------|
-----------|-----------------------------------|------------------------------------|
-----------|-----------------------------------|------------------------------------|


  S  S S E  E  S S S S  S  S S S. T     E  S E  E  S H         
-------5-5--2----5-2---(2)-5-2-------|-----7-7--4----7--------|
--0s-3---------3-----3---------3--3s-|--5----------5----------|
-------------------------------------|------------------------|
-------------------------------------|------------------------|
-------------------------------------|------------------------|
-------------------------------------|------------------------|


  Fade out...........                               
  E.                   Q     S  E.    S  S  S  S S  
-----------------------5-----L--4--------5p-4p-0---|
--2-------------------(7)------(0)---(0)---------0-|
---------------------------------------------------|
---------------------------------------------------|
---------------------------------------------------|
---------------------------------------------------|


                      ^                                                    
   E.   T  T S S S S  Q     S S S S    S  S S E  E  S S S S  S  S S S. T   
---2----2p-0---0-2-5--0-----0---2-0-|-------5-5--2----5-2---(2)-5-2-------|
-------------3-------(2)------2-----|--0s-3---------3-----3---------3--3s-|
--(2)----------------(2)------------|-------------------------------------|
------------------------------------|-------------------------------------|
------------------------------------|-------------------------------------|
------------------------------------|-------------------------------------|


  E  S E  E  S H          
-----7-7--4----7--------||
--5----------5----------||
------------------------||
------------------------||
------------------------||
------------------------||




Duration Legend
---------------
W - whole
H - half
Q - quarter
E - 8th
S - 16th
T - 32nd
X - 64th
. - note dotted
|-n-|  - n-tuplets


Tablature Legend
----------------
L - tied note
x - dead note
g - grace note
(n) - ghost note
> - accentuded note
NH - natural harmonic
AH - artificial harmonic
TH - tapped harmonic
SH - semi harmonic
PH - pitch harmonic
h - hammer on
p - pull off
b - bend
br - bendRelease
pb - preBend
pbr - preBendRelease
brb - bendReleaseBend
\n/ - tremolo bar dip
\n - tremolo bar dive
-/n - tremolo bar Release up
/n\ - tremolo bar inverted dip
/n - tremolo bar return
-\n - tremolo bar Release down
S - shift slide
s - legato slide
/ -  slide into from below or out of upwards
\ -  slide into from above or out of downwards
~ - vibrato
W - wide vibrato
tr - trill
TP - tremolo picking
T - tapping
S - slap
P - pop
< - fade in
^ - brush up
v - brush down
comments
We did not receive enough feedback on this tab! Please rate:
print report bad tab
1 2 3 4 5
I want to post or [tab]
guest
You may want to rate the tab now too:
select rating
Please do not post tabs as comments. Select "correction" instead!