Oops, an error
Loading. Please wait.

King Bass Tab

ver1
ver1

Whole song

Interactive

More versions @911Tabs.com
3,557 views 18 this week
1 commentread comment
1 2 3 4 5
accurate
x 2
Autoscroll
+/-
esc
set tempo
stop
Contributor
Difficulty
intermediate
Hey! There's an official Ultimate Guitar app which is ideal
for learning songs when you're away from computer. Get the app
WARNING: You are trying to view
                                    content from Ultimate-Guitar.com
                                    in an unauthorized application,
                                    which is prohibited.

                                    Please use an official Ultimate
                                    Guitar Tabs application for iPhone,
                                    iPad or Android to access legitimate
                                    chords, guitar, bass, and drum tabs
                                    from Ultimate-Guitar.com database.

                                    Type "ultimate guitar tabs" in Apple
                                    App Store's or Android Market's
                                    search to find the application.
         K.I.N.G.                                     


                                                                       Satyricon
Bass



      W                   W                   W                 
F#||-------------------|-------------------|-------------------|
C#||-------------------|-------------------|-------------------|
G#||-------------------|-------------------|-------------------|
D#||-------------------|-------------------|-------------------|


  W                   W                   W                 
-------------------|-------------------|-------------------|
-------------------|-------------------|-------------------|
-------------------|-------------------|-------------------|
-------------------|-------------------|-------------------|


  E  E  E  E  E  E  E  E     E  E  E  E  E  E  E  E   
--------------------------|--------------------------|
--0-----0-----0-----0-----|--0-----0-----------------|
--------------------------|--------------4--4--4--4--|
--------------------------|--------------------------|


  E  E  E  E  E  E  E  E     E  E  E  E  E  E  E  E   
--------------------------|--------------------------|
--0-----0-----0-----0-----|--0-----0-----------------|
--------------------------|--------------4--4--4--4--|
--------------------------|--------------------------|


  E  E  E  E  E  E  E  E  E  E     E  E  E  E  E  E  E  E  E  E   
--------------------------------|--------------------------------|
--0--0--0--3--3--2--2--------1--|--0--0--0--3--3--2--2--------1--|
-----------------------3--3-----|-----------------------3--3-----|
--------------------------------|--------------------------------|


  E  E  E  E  E  E  E  E  E  E     E  E  E  E  E  E  E  E  E  E   
--------------------------------|--------------------------------|
--0--0--0--3--3--2--2--------1--|--0--0--0--3--3--2--2--------1--|
-----------------------3--3-----|-----------------------3--3-----|
--------------------------------|--------------------------------|


  E  E  E  E  E  E  E  E     E  E  E  E  E  E  E  E   
--------------------------|--------------------------|
--0-----0-----0-----0-----|--0-----0-----------------|
--------------------------|--------------4--4--4--4--|
--------------------------|--------------------------|


  E  E  E  E  E  E  E  E     E  E  E  E  E  E  E  E   
--------------------------|--------------------------|
--0-----0-----0-----0-----|--0-----0-----------------|
--------------------------|--------------4--4--4--4--|
--------------------------|--------------------------|


  E  E  E  E  E  E  E  E     E  E  E  E  E  E  E  E   
--------------------------|--------------------------|
--0-----0-----0-----0-----|--0-----0-----------------|
--------------------------|--------------4--4--4--4--|
--------------------------|--------------------------|


  E  E  E  E  E  E  E  E     E  E  E  E  E  E  E  E   
--------------------------|--------------------------|
--0-----0-----0-----0-----|--0-----0-----------------|
--------------------------|--------------4--4--4--4--|
--------------------------|--------------------------|


  E  E  E  E  E  E  E  E     E  E  E  E  E  E  E  E   
--------------------------|--------------------------|
--0-----0-----0-----0-----|--0-----0-----------------|
--------------------------|--------------4--4--4--4--|
--------------------------|--------------------------|


  E  E  E  E  E  E  E  E     E  E  E  E  E  E  E  E   
--------------------------|--------------------------|
--0-----0-----0-----0-----|--0-----0-----------------|
--------------------------|--------------4--4--4--4--|
--------------------------|--------------------------|


  E  E  E  E  E  E  E  E     E  E  E  E  E  E  E  E   
--------------------------|--------------------------|
--0-----0-----0-----0-----|--0-----0-----------------|
--------------------------|--------------4--4--4--4--|
--------------------------|--------------------------|


  E  E  E  E  E  E  E  E     E  E  E  E  E  E  E  E     E  E  E  Q    E  E  E   
--------------------------|--------------------------|-------------------------|
--0-----0-----0-----0-----|--0-----0-----------------|--0--0--0--1----0-----0--|
--------------------------|--------------4--4--4--4--|-------------------3-----|
--------------------------|--------------------------|-------------------------|


  E  E  E  E  E  E  E  E     E  E  E  Q    E  E  E     E  E  E  E  E  E  E  E   
--------------------------|-------------------------|--------------------------|
-----------1-----3--3--5--|--0--0--0--1----0-----0--|-----------1-----3--3--5--|
--3--3--3-----------------|-------------------3-----|--3--3--3-----------------|
--------------------------|-------------------------|--------------------------|


  E  E  E  Q    E  E  E     E  E  E  E  E  E  E  E     E  E  E  Q    E  E  E   
-------------------------|--------------------------|-------------------------|
--0--0--0--1----0-----0--|-----------1-----3--3--5--|--0--0--0--1----0-----0--|
-------------------3-----|--3--3--3-----------------|-------------------3-----|
-------------------------|--------------------------|-------------------------|


  E  E  E  E  E  E  E  E     E  E  E  E  E  E  E  E  E  E   
--------------------------|--------------------------------|
-----------1-----3--3--5--|--0--0--0--3--3--2--2--------1--|
--3--3--3-----------------|-----------------------3--3-----|
--------------------------|--------------------------------|


  E  E  E  E  E  E  E  E  E  E     E  E  E  E  E  E  E  E  E  E   
--------------------------------|--------------------------------|
--0--0--0--3--3--2--2--------1--|--0--0--0--3--3--2--2--------1--|
-----------------------3--3-----|-----------------------3--3-----|
--------------------------------|--------------------------------|


  E  E  E  E  E  E  E  E  E  E     E  E  E  E  E  E  E  E   
--------------------------------|--------------------------|
--0--0--0--3--3--2--2--------1--|--0-----0-----0-----0-----|
-----------------------3--3-----|--------------------------|
--------------------------------|--------------------------|


  E  E  E  E  E  E  E  E     E  E  E  E  E  E  E  E   
--------------------------|--------------------------|
--0-----0-----------------|--0-----0-----0-----0-----|
--------------4--4--4--4--|--------------------------|
--------------------------|--------------------------|


  E  E  E  E  E  E  E  E     E  E  E  E  E  E  E  E   
--------------------------|--------------------------|
--0-----0-----------------|--0-----0-----0-----0-----|
--------------4--4--4--4--|--------------------------|
--------------------------|--------------------------|


  E  E  E  E  E  E  E  E     E  E  E  E  E  E  E  E   
--------------------------|--------------------------|
--0-----0-----------------|--0-----0-----0-----0-----|
--------------4--4--4--4--|--------------------------|
--------------------------|--------------------------|


  E  E  E  E  E  E  E  E     E  E  E  E  E  E  E  E   
--------------------------|--------------------------|
--0-----0-----------------|--0-----0-----0-----0-----|
--------------4--4--4--4--|--------------------------|
--------------------------|--------------------------|


  E  E  E  E  E  E  E  E     E  E  E  E  E  E  E  E   
--------------------------|--------------------------|
--0-----0-----------------|--0-----0-----0-----0-----|
--------------4--4--4--4--|--------------------------|
--------------------------|--------------------------|


  E  E  E  E  E  E  E  E     E  E  E  E  E  E  E  E   
--------------------------|--------------------------|
--0-----0-----------------|--0-----0-----0-----0-----|
--------------4--4--4--4--|--------------------------|
--------------------------|--------------------------|


  E  E  E  E  E  E  E  E     E  E  E  E  E  E  E  E   
--------------------------|--------------------------|
--0-----0-----------------|--0-----0-----0-----0-----|
--------------4--4--4--4--|--------------------------|
--------------------------|--------------------------|


  E  E  E  E  E  E  E  E     E  E  E  Q    E  E  E     E  E  E  E  E  E  E  E   
--------------------------|-------------------------|--------------------------|
--0-----0-----------------|--0--0--0--1----0-----0--|-----------1-----3--3--5--|
--------------4--4--4--4--|-------------------3-----|--3--3--3-----------------|
--------------------------|-------------------------|--------------------------|


  E  E  E  Q    E  E  E     E  E  E  E  E  E  E  E     E  E  E  Q    E  E  E   
-------------------------|--------------------------|-------------------------|
--0--0--0--1----0-----0--|-----------1-----3--3--5--|--0--0--0--1----0-----0--|
-------------------3-----|--3--3--3-----------------|-------------------3-----|
-------------------------|--------------------------|-------------------------|


  E  E  E  E  E  E  E  E     E  E  E  Q    E  E  E     E  E  E  E  E  E  E  E   
--------------------------|-------------------------|--------------------------|
-----------1-----3--3--5--|--0--0--0--1----0-----0--|-----------1-----3--3--5--|
--3--3--3-----------------|-------------------3-----|--3--3--3-----------------|
--------------------------|-------------------------|--------------------------|


  E  E  E  E  E  E  E  E  E  E     E  E  E  E  E  E  E  E  E  E   
--------------------------------|--------------------------------|
--0--0--0--3--3--2--2--------1--|--0--0--0--3--3--2--2--------1--|
-----------------------3--3-----|-----------------------3--3-----|
--------------------------------|--------------------------------|


  E  E  E  E  E  E  E  E  E  E     E  E  E  E  E  E  E  E  E  E   
--------------------------------|--------------------------------|
--0--0--0--3--3--2--2--------1--|--0--0--0--3--3--2--2--------1--|
-----------------------3--3-----|-----------------------3--3-----|
--------------------------------|--------------------------------|


  E  E  Q.     E  E  E     Q    E  E  E  E  E  E     E  E  Q.     E  E  E   
------------------------|-------------------------|------------------------|
------------------------|-------------------------|------------------------|
------------------------|-------------------------|------------------------|
--5--5---------0--1--3--|--3----8--8-----3--3--6--|--5--5---------0--1--3--|


  Q    E  E  E  E  E  E     E  E  Q.     E  E  E     Q    E  E  E  E  E  E   
-------------------------|------------------------|-------------------------|
-------------------------|------------------------|-------------------------|
-------------------------|------------------------|-------------------------|
--3----8--8-----3--3--6--|--5--5---------0--1--3--|--3----8--8-----3--3--6--|


  E  E  Q.     E  E  E     Q    E  E  E  E  E  E     E  E  E  E  E  E  E  E   
------------------------|-------------------------|--------------------------|
------------------------|-------------------------|--------------------------|
------------------------|-------------------------|--------------------------|
--5--5---------0--1--3--|--3----8--8-----3--3--6--|--5--5--5--5--5--0--0--1--|


  E  E  E  E  E  E  E  E     E  E  E  E  E  E  E  E   
--------------------------|--------------------------|
--------------------------|--------------------------|
--------------------------|--------------------------|
--8--8--8--8--8--3--3--6--|--5--5--5--5--5--0--0--1--|


  E  E  E  E  E  E  E  E     E  E  E  E  E  E  E  E   
--------------------------|--------------------------|
--------------------------|--------------------------|
--------------------------|--------------------------|
--8--8--8--8--8--3--3--6--|--5--5--5--5--5--0--0--1--|


  E  E  E  E  E  E  E  E     E  E  E  E  E  E  E  E   
--------------------------|--------------------------|
--------------------------|--------------------------|
--------------------------|--------------------------|
--8--8--8--8--8--3--3--6--|--5--L--L--L--L--0--0--1--|


  E  E  E  E  E  E  E  E     E  E  E  E  E  E  E  E   
--------------------------|--------------------------|
--------------------------|--0-----0-----0-----0-----|
--------------------------|--------------------------|
--8--L--L--L--L--3--3--6--|--------------------------|


  E  E  E  E  E  E  E  E     E  E  E  E  E  E  E  E   
--------------------------|--------------------------|
--0-----0-----------------|--0-----0-----0-----0-----|
--------------4--4--4--4--|--------------------------|
--------------------------|--------------------------|


  E  E  E  E  E  E  E  E     E  E  E  E  E  E  E  E   
--------------------------|--------------------------|
--0-----0-----------------|--0-----0-----0-----0-----|
--------------4--4--4--4--|--------------------------|
--------------------------|--------------------------|


  E  E  E  E  E  E  E  E     E  E  E  E  E  E  E  E   
--------------------------|--------------------------|
--0-----0-----------------|--0-----0-----0-----0-----|
--------------4--4--4--4--|--------------------------|
--------------------------|--------------------------|


  E  E  E  E  E  E  E  E     E  E  E  Q    E  E  E     E  E  E  E  E  E  E  E   
--------------------------|-------------------------|--------------------------|
--0-----0-----------------|--0--0--0--1----0-----0--|-----------1-----3--3--5--|
--------------4--4--4--4--|-------------------3-----|--3--3--3-----------------|
--------------------------|-------------------------|--------------------------|


  E  E  E  Q    E  E  E     E  E  E  E  E  E  E  E     E  E  E  Q    E  E  E   
-------------------------|--------------------------|-------------------------|
--0--0--0--1----0-----0--|-----------1-----3--3--5--|--0--0--0--1----0-----0--|
-------------------3-----|--3--3--3-----------------|-------------------3-----|
-------------------------|--------------------------|-------------------------|


  E  E  E  E  E  E  E  E     E  E  E  Q    E  E  E     E  E  E  E  E  E  E  E   
--------------------------|-------------------------|--------------------------|
-----------1-----3--3--5--|--0--0--0--1----0-----0--|-----------1-----3--3--5--|
--3--3--3-----------------|-------------------3-----|--3--3--3-----------------|
--------------------------|-------------------------|--------------------------|


  W                   E  E  E  E  E  E  E  E     E  E  E  E  E  E  E  E  E  E   
-------------------|--------------------------|--------------------------------|
-------------------|--------------------------|--0--0--0--3--3--2--2--------1--|
-------------------|--------------4--4--4--4--|-----------------------3--3-----|
-------------------|--------------------------|--------------------------------|


  E  E  E  E  E  E  E  E  E  E     E  E  E  E  E  E  E  E  E  E   
--------------------------------|--------------------------------|
--0--0--0--3--3--2--2--------1--|--0--0--0--3--3--2--2--------1--|
-----------------------3--3-----|-----------------------3--3-----|
--------------------------------|--------------------------------|


  E  E  E  E  E  E  E  E  E  E     E  H        H        E    
--------------------------------|--------------------------||
--0--0--0--3--3--2--2--------1--|--0-----------------------||
-----------------------3--3-----|--------------------------||
--------------------------------|--------------------------||




Duration Legend
---------------
W - whole
H - half
Q - quarter
E - 8th
S - 16th
T - 32nd
X - 64th
. - note dotted
|-n-|  - n-tuplets


Tablature Legend
----------------
L - tied note
x - dead note
g - grace note
(n) - ghost note
> - accentuded note
NH - natural harmonic
AH - artificial harmonic
TH - tapped harmonic
SH - semi harmonic
PH - pitch harmonic
h - hammer on
p - pull off
b - bend
br - bendRelease
pb - preBend
pbr - preBendRelease
brb - bendReleaseBend
\n/ - tremolo bar dip
\n - tremolo bar dive
-/n - tremolo bar Release up
/n\ - tremolo bar inverted dip
/n - tremolo bar return
-\n - tremolo bar Release down
S - shift slide
s - legato slide
/ -  slide into from below or out of upwards
\ -  slide into from above or out of downwards
~ - vibrato
W - wide vibrato
tr - trill
TP - tremolo picking
T - tapping
S - slap
P - pop
< - fade in
^ - brush up
v - brush down
comments
We did not receive enough feedback on this tab! Please rate:
print report bad tab
1 2 3 4 5
1 comment total.
-2 reply
Nostri wrote on February 11 2008, 03:38 pm

 

I want to post or [tab]
guest
You may want to rate the tab now too:
select rating
Please do not post tabs as comments. Select "correction" instead!