Oops, an error
Loading. Please wait.

Walk The Path Of Sorrow Tab

1,833 views 9 this week
2 commentsread comments
1 2 3 4 5
excellent!
x 2
add to favorites launch autoscroll
font size
0
reset
Autoscroll
+/-
esc
set tempo
stop
WARNING: You are trying to view
                                    content from Ultimate-Guitar.com
                                    in an unauthorized application,
                                    which is prohibited.

                                    Please use an official Ultimate
                                    Guitar Tabs application for iPhone,
                                    iPad or Android to access legitimate
                                    chords, guitar, bass, and drum tabs
                                    from Ultimate-Guitar.com database.

                                    Type "ultimate guitar tabs" in Apple
                                    App Store's or Android Market's
                                    search to find the application.
Song:Walk the Path of Sorrow
Artist:Satyricon
Album:Dark Medieval Times
Tabbed by:Asbeel(Asbeel@hotmail.com)

This is the song that made me(and I'm sure many others) worship Satyricon . 
The new albums very good , but It doesn't even
compare to the greatness that is Dark Medieval Times . Every things here , 
even the classical solo part . Complaints/comments
and the such can be mailed to me .Oh yeah,and If anyone knows the lyrics for 
anything off of Dark Medievil times PLEASE
mail them to me. Enjoy.

Key:
p=pull-off
/=slide
....=tremelo
h=hammer-on
pm=palm mute

Riff 1 (this is played fast up and down put I think It sounds better with 
just downstrokes , keeping in time with the snare)
----------------------------------------------------------------------------
----------------------------------------------------------------------------
----------------------------------------------------------------------------
----7-7-7-7-7-7-7-7-7-7-7-7-7--5-5-5--8-8-8-8-8-8-8-8-8-8-8-8-10-10-10-10---
----7-7-7-7-7-7-7-7-7-7-7-7-7--5-5-5--8-8-8-8-8-8-8-8-8-8-8-8-10-10-10-10---
----5-5-5-5-5-5-5-5-5-5-5-5-5--3-3-3--6-6-6-6-6-6-6-6-6-6-6-6--8--8--8--8---

Classical Rythm Part
---------------------------------0--------------
-------3--------3-------3-----------3-----3-----
----------2--------2-------2-----------2-----2--
---0---------0--------0-------0-----------------
------------------------------------------------
------------------------------------------------

Classical lead(listen to the song)
-----------------------------------------------------------------------------------------------------------
-----------------------------------------------------------------------------------------------------------
-----------------------------------------------------------------------------------------------------------
--3--2--0-------------0---2--2h3--2p0---0------------------------3-2-3-2-3-2--3--2--0----------------------
-----------3--2--0--------------------------3--2--0-------------------------------------3--2--0------------
-------------------------------------------------------3--2--0-----------------------------------3--2--0---

Last Chord
------
--3---
--2---
--0---
--0---
------

Back to Riff 1

Riff 2 (Follows choir)
-----------------------------------------------------------------------
-----------------------------------------------------------------------
-----------------------------------------------------------------------
--7-7-7-7-7-7-7-7--7-7-7-7-7-7-7-7--8-8-8-8-8-8-8--1212121212121212----
--7-7-7-7-7-7-7-7--7-7-7-7-7-7-7-7--8-8-8-8-8-8-8--1212121212121212----
--5-5-5-5-5-5-5-5--5-5-5-5-5-5-5-5--6-6-6-6-6-6-6--1010101010101010----

Riff 3x4
-----------------------------------------
-----------------------------------------
-----------------------------------------
--77777777--55555555---------------------
--55555555--33333333---7777777777777777--
-----------------------5555555555555555--

Riff 4x4
-----------------------------------------------
-----------------------------------------------
-----------------------------------------------
---777777--66--88888888---777777--66--55-------
---555555--44--66666666---555555--44--33--77---
------------------------------------------55---

Riff 5 untill songs end
---------------------------------------------------------------
---------------------------------------------------------------
-666666666666--444444-333-444--666666666666---444444-333-444---
-666666666666--444444-333-444--6666666666666--444444-333-444---
-444444444444--222222-111-222--4444444444444--222222-111-222---
---------------------------------------------------------------

----------------------------------------------------------------
----------------------------------------------------------------
-888888888888--444444--333-444--888888888888--444444--333--444--
-888888888888--444444--333-444--888888888888--444444--333--444--
-666666666666--222222--111-222--666666666666--222222--111--222--
----------------------------------------------------------------
comments
We did not receive enough feedback on this tab! Please rate:
1 2 3 4 5
2 comments total.
+1 reply
Escape_Artists wrote on June 3 2007, 09:02 am

Here's the lyrics for you:

In the Devoid of Sorrow
The Air and my Heart full of Luster

Behind the Mountains
Blasphemy to the Gates

Right passed easy Talk
We can wait again walk the Path of Sorrow
Let the Turn of Search bring you away

Two Shades of the Midnight Fire
In the Night Sky
You waiting Child walk with me
Walk by Side of Fall
The Essence to open those Gates
And still we must walk the Path of Sorrow

Good tab by the way.

+1 reply
immortal_stone wrote on February 13 2008, 08:50 am

this is how the classical part go's(i fingure pick this part it sounds better)


e--------------0---------------------0------]
b----3--3--3----3-3-------3--3--3-----3-3---]
g-----2--2--2----2-2-------3--3--3-----3-3--]
d--0---0--0--0----------0---0--0--0---------]
a-------------------------------------------]
e-------------------------------------------]


slight correction,good tab though man

I want to post or [tab]
guest
You may want to rate the tab now too:
select rating
Please do not post tabs as comments. Select "correction" instead!