Oops, an error
Loading. Please wait.

All That I Bleed Tab

ver2
ver2

Whole song

Interactive

More versions @911Tabs.com
1,833 views 6 this week
1 commentread comment
1 2 3 4 5
excellent!
x 2
Autoscroll
+/-
esc
set tempo
stop
Contributor
WARNING: You are trying to view
                                    content from Ultimate-Guitar.com
                                    in an unauthorized application,
                                    which is prohibited.

                                    Please use an official Ultimate
                                    Guitar Tabs application for iPhone,
                                    iPad or Android to access legitimate
                                    chords, guitar, bass, and drum tabs
                                    from Ultimate-Guitar.com database.

                                    Type "ultimate guitar tabs" in Apple
                                    App Store's or Android Market's
                                    search to find the application.
#----------------------------------PLEASE NOTE---------------------------------#
#This file is the author's own work and represents their interpretation of the #
#song. You may only use this file for private study, scholarship, or research. #
#------------------------------------------------------------------------------#

ALL THAT I BLEED
As recorded by Savatage
(From the 1993 Album THE EDGE OF THORNS)

Transcribed by Fear Fex
        

Music by Jon & Criss Oliva, O'Neil

Gtr I (B E A D G B E) - 'Jon Oliva Piano Right Hand'
Gtr II (E A D G) - 'Jon Oliva Piano Left Hand'
Gtr III (E A D G B E) - 'Criss'
Gtr IV (E A D G B E) - 'Criss2'

 Intro
  Q=77
  Bb          F             Eb          F
 4/4
  Gtr I
   E  E  E  E  E  E  E  E    E  E  E  E  E  E  E  E
|-------------------------|-------------------------|
|-15----15----13----13----|-11----11----13----13----|
|-15----15----14----14----|-12----12----14----14----|
|----15----15----15----15-|----13----13----15----15-|
|-------------------------|-------------------------|
|-------------------------|-------------------------|
|-------------------------|-------------------------|


  Bb          F             Eb          F
   E  E  E  E  E  E  E  E    E  E  E  E  E  E  E  E
|-------------------------|-------------------------|
|-15----15----13----13----|-11----11----13----13----|
|-15----15----14----14----|-12----12----14----14----|
|----15----15----15----15-|----13----13----15----15-|
|-------------------------|-------------------------|
|-------------------------|-------------------------|
|-------------------------|-------------------------|


 Verse
  Bb          F             Eb          F
   E  E  E  E  E  E  E  E    E  E  E  E  E  E  E  E
|-------------------------|-------------------------|
|-15----15----13----13----|-11----11----13----13----|
|-15----15----14----14----|-12----12----14----14----|
|----15----15----15----15-|----13----13----15----15-|
|-------------------------|-------------------------|
|-------------------------|-------------------------|
|-------------------------|-------------------------|


  Bb          F             Eb          F
   E  E  E  E  E  E  E  E    E  E  E  E  E  E  E  E
|-------------------------|--------------------------|
|-15----15----13----13----|-11----11----13----13-----|
|-15----15----14----14----|-12----12----14----14-----|
|----15----15----15----15-|----13----13----15----15--|
|-------------------------|--------------------------|
|-------------------------|--------------------------|
|-------------------------|--------------------------|


  Bb          F             Eb          F
   E  E  E  E  E  E  E  E    E  E  E  E  E  E  E  E
|-------------------------|-------------------------|
|-15----15----13----13----|-11----11----13----13----|
|-15----15----14----14----|-12----12----14----14----|
|----15----15----15----15-|----13----13----15----15-|
|-------------------------|-------------------------|
|-------------------------|-------------------------|
|-------------------------|-------------------------|


  Bb          F             Eb          F
   E  E  E  E  E  E  E  E    E  E  E  E  E  E  E  E
|-------------------------|--------------------------|
|-15----15----13----13----|-11----11----13----13-----|
|-15----15----14----14----|-12----12----14----14-----|
|----15----15----15----15-|----13----13----15----15--|
|-------------------------|--------------------------|
|-------------------------|--------------------------|
|-------------------------|--------------------------|


 Pre-Chorus
  Cm                  Bb
   Q   Q   Q    Q      Q    Q    Q     Q
|-------------------|-----------------------|
|-------------------|-----------------------|
|-----12--12---12---|-----------------------|
|-13--13--13---13---|-12---12---12----12----|
|-15----------------|-13---13---13----13----|
|-15----------------|-13--------------------|
|-------------------|-----------------------|
|
| Gtr II
|  H      +Q.     E    Q.     E +E  E +E  E
|--5------(5)-----5-|-----------------------|
|-------------------|--8------8-(8)-8-(8)-8-|
|--3------(3)-------|-----------------------|
|-------------------|--6--------------------|


  Cm                      F
   Q    Q    Q     Q       Q    Q    Q     Q
|-----------------------|------------------------|
|-----------------------|-----------13-----------|
|-----------------------|-----------14-----------|
|-13---13---13----13----|------------------------|
|-15---15---15----15----|-12---12---------12-----|
|-15--------------------|-13---13---------13-----|
|-----------------------|------------------------|
|
|  Q.     E +E  E +E  E    Q.     E +E  E +E  E
|--5------5-(5)-5-(5)-5-|------------------------|
|-----------------------|--3------3-(3)-3-(3)-3--|
|--3--------------------|------------------------|
|-----------------------|--1---------------------|


  Cm                      Bb
   Q    Q    Q     Q       Q    Q    Q     Q
|-----------------------|-----------------------|
|-----------------------|-----------------------|
|-12---12---12----12----|-----------------------|
|-13---13---13----13----|-12---12---12----12----|
|-15--------------------|-13---13---13----13----|
|-----------------------|-13--------------------|
|-----------------------|-----------------------|
|
|  Q.     E +E  E +E  E    Q.     E +E  E +E  E
|--5------5-(5)-5-(5)-5-|-----------------------|
|-----------------------|--8------8-(8)-8-(8)-8-|
|--3--------------------|-----------------------|
|-----------------------|--6--------------------|


  Cm                      F
   Q    Q    Q     Q       W
|-----------------------|-------|
|-----------------------|-------|
|------12---12----12----|-------|
|-13---13---13----13----|-10----|
|-15--------------------|-12----|
|-15--------------------|-------|
|-----------------------|-------|
|
|  Q.     E +E  E +E  E    W
|--5------5-(5)-5-(5)-5-|-------|
|-----------------------|-------|
|--3--------------------|--8----|
|-----------------------|-------|


 Bridge
  Bb          F             Eb          F
   E  E  E  E  E  E  E  E    E  E  E  E  E  E  E  E
|-------------------------|-------------------------|
|-15----15----13----13----|-11----11----13----13----|
|-15----15----14----14----|-12----12----14----14----|
|----15----15----15----15-|----13----13----15----15-|
|-------------------------|-------------------------|
|-------------------------|-------------------------|
|-------------------------|-------------------------|
|
|  W                         W
|-------------------------|-------------------------|
|-------------------------|-------------------------|
|-------------------------|-------------------------|
|-------------------------|-------------------------|


  Bb          F             Eb          F
   E  E  E  E  E  E  E  E    E  E  E  E  E  E  E  E
|-------------------------|--------------------------|
|-15----15----13----13----|-11----11----13----13-----|
|-15----15----14----14----|-12----12----14----14-----|
|----15----15----15----15-|----13----13----15----15--|
|-------------------------|--------------------------|
|-------------------------|--------------------------|
|-------------------------|--------------------------|
|
|  W                         W
|-------------------------|--------------------------|
|--8----------------------|--------------------------|
|-------------------------|--------------------------|
|--6----------------------|--------------------------|


 Verse
  Bb          F             Eb          F
   E  E  E  E  E  E  E  E    E  E  E  E  E  E  E  E
|-------------------------|-------------------------|
|-15----15----13----13----|-11----11----13----13----|
|-15----15----14----14----|-12----12----14----14----|
|----15----15----15----15-|----13----13----15----15-|
|-------------------------|-------------------------|
|-------------------------|-------------------------|
|-------------------------|-------------------------|


  Bb          F             Eb          F
   E  E  E  E  E  E  E  E    E  E  E  E  E  E  E  E
|-------------------------|--------------------------|
|-15----15----13----13----|-11----11----13----13-----|
|-15----15----14----14----|-12----12----14----14-----|
|----15----15----15----15-|----13----13----15----15--|
|-------------------------|--------------------------|
|-------------------------|--------------------------|
|-------------------------|--------------------------|


  Bb          F             Eb          F
   E  E  E  E  E  E  E  E    E  E  E  E  E  E  E  E
|-------------------------|-------------------------|
|-15----15----13----13----|-11----11----13----13----|
|-15----15----14----14----|-12----12----14----14----|
|----15----15----15----15-|----13----13----15----15-|
|-------------------------|-------------------------|
|-------------------------|-------------------------|
|-------------------------|-------------------------|
|
| Gtr II
|  W                         W
|-------------------------|-------------------------|
|--8----------------------|-------------------------|
|-------------------------|-------------------------|
|--6----------------------|-------------------------|


  Bb          F             Eb          F
   E  E  E  E  E  E  E  E    E  E  E  E  E  E  E  E
|-------------------------|--------------------------|
|-15----15----13----13----|-11----11----13----13-----|
|-15----15----14----14----|-12----12----14----14-----|
|----15----15----15----15-|----13----13----15----15--|
|-------------------------|--------------------------|
|-------------------------|--------------------------|
|-------------------------|--------------------------|
|
|  W                         W
|-------------------------|--------------------------|
|-------------------------|--------------------------|
|-------------------------|--------------------------|
|-------------------------|--------------------------|


 Pre-Chorus
  Cm                  Bb
   Q   Q   Q    Q      Q    Q    Q     Q
|-------------------|-----------------------|
|-------------------|-----------------------|
|-----12--12---12---|-----------------------|
|-13--13--13---13---|-12---12---12----12----|
|-15----------------|-13---13---13----13----|
|-15----------------|-13--------------------|
|-------------------|-----------------------|
|
|  H      +Q.     E    Q.     E +E  E +E  E
|--5------(5)-----5-|-----------------------|
|-------------------|--8------8-(8)-8-(8)-8-|
|--3------(3)-------|-----------------------|
|-------------------|--6--------------------|


  Cm                      F
   Q    Q    Q     Q       Q    Q    Q     Q
|-----------------------|------------------------|
|-----------------------|-----------13-----------|
|-----------------------|-----------14-----------|
|-13---13---13----13----|------------------------|
|-15---15---15----15----|-12---12---------12-----|
|-15--------------------|-13---13---------13-----|
|-----------------------|------------------------|
|
|  Q.     E +E  E +E  E    Q.     E +E  E +E  E
|--5------5-(5)-5-(5)-5-|------------------------|
|-----------------------|--3------3-(3)-3-(3)-3--|
|--3--------------------|------------------------|
|-----------------------|--1---------------------|


  Cm                     Bb                    Cm                     F
   Q   Q    Q     Q      Q   Q    Q     Q       Q   Q    Q     Q       W
|----------------------|---------------------|----------------------|-------|
|--8---8----8-----8----|---------------------|------8----8-----8----|-------|
|--8---8----8-----8----|-7---7----7-----7----|--8---8----8-----8----|-------|
|-10-------------------|-8---8----8-----8----|-10-------------------|-10----|
|----------------------|-8-------------------|-10-------------------|-12----|
|----------------------|---------------------|----------------------|-------|
|----------------------|---------------------|----------------------|-------|
|
|  Q.    E +E  E +E  E   Q.    E +E  E +E  E    Q.    E +E  E +E  E    W
|--5-----5-(5)-5-(5)-5-|---------------------|--5-----5-(5)-5-(5)-5-|-------|
|----------------------|-8-----8-(8)-8-(8)-8-|----------------------|-------|
|--3-------------------|---------------------|--3-------------------|--8----|
|----------------------|-6-------------------|----------------------|-------|


 Bridge 2
  Bb                                     Gm
             |--3---|
   Q    Q    S   S  S  E    E     S  S    Q.    E  +E   S  S  E  S  S
|------------------13-15---13----------|------------------------------|
|-15---15---15--16---------------15-16-|-15---------------------------|
|-15---15------------------------------|-------15-(15)----14-15----15-|
|-15-----------------------------------|-------17-(17)-17-------17----|
|--------------------------------------|------------------------------|
|--------------------------------------|------------------------------|
|--------------------------------------|------------------------------|
|
|  Q.     E +E.          S  S E.          H         Q         Q
|--------------------------------------|------------------------------|
|--8------8-(8)----------8--8-8--------|--5---------5---------5-------|
|--------------------------------------|------------------------------|
|--------------------------------------|------------------------------|


  Eb                         N.C.
   Q.    E  +E   S  S  Q      Q   Q    Q    Q
|--------------------------|-------------------|
|--------------------------|-------------------|
|-------15-(15)-------15---|-15--14---12---14--|
|-17----17-(17)-17-19------|-------------------|
|--------------------------|-------------------|
|--------------------------|-------------------|
|--------------------------|-------------------|
|
|  H         Q         E E    Q   E E  E E  Q
|--------------------------|-------------------|
|--1---------1---------1-1-|--3---3-3--3-3--3--|
|--------------------------|-------------------|
|--------------------------|-------------------|


  Bb                                     Gm
             |--3---|
   Q    Q    S   S  S  E    E     S  S    Q.    E  +E   S  S  E  S  S
|------------------13-15---13----------|------------------------------|
|-15---15---15--16---------------15-16-|-15---------------------------|
|-15---15------------------------------|-------15-(15)----14-15----15-|
|-15-----------------------------------|-------17-(17)-17-------17----|
|--------------------------------------|------------------------------|
|--------------------------------------|------------------------------|
|--------------------------------------|------------------------------|
|
|  Q.     E +E.          S  S E.          H         Q         E  E
|--3------3-(3)----------3--3-3--------|------------------------------|
|--------------------------------------|--5---------5---------5--5----|
|--------------------------------------|------------------------------|
|--------------------------------------|------------------------------|
|
| Gtr III
|  W                                      W
|--------------------------------------|------------------------------|
|--------------------------------------|------------------------------|
|--------------------------------------|------------------------------|
|--------------------------------------|------------------------------|
|--------------------------------------|------------------------------|
|--------------------------------------|------------------------------|


  Eb                         F5
   Q.    E  +E   S  S  Q      Q    Q   Q   Q
|--------------------------|-------------------|
|---------------------11---|-11---10---8---6---|
|-------15-(15)----14------|-------------------|
|-17----17-(17)-17---------|-------------------|
|--------------------------|-------------------|
|--------------------------|-------------------|
|--------------------------|-------------------|
|
|  H         Q         E E    Q    E E E E E E
|--------------------------|-------------------|
|--1---------1---------1-1-|--3----3-3-3-3-3-3-|
|--------------------------|-------------------|
|--------------------------|-------------------|
|
|  W                          E E  E E E E E E
|--------------------------|-------------------|
|--------------------------|-------------------|
|--------------------------|-------------------|
|--------------------------|--3-3--3-3-3-3-3-3-|
|--------------------------|--3-3--3-3-3-3-3-3-|
|--------------------------|--1-1--1-1-1-1-1-1-|


                     Chorus
  F5                  Bb5 Bb5/Bb5/Bb5/F Eb5 Eb5 Eb5/Eb5   Bb5 Bb5/Bb5Bb5Bb5F5
   Q    Q   Q   Q      Q   Q   Q   Q     Q   Q   Q   Q     Q   Q   E  E  E  E
|-------------------|-----------------|-----------------|----------------------|
|-11---10---8---6---|-15--15--15--15--|-16--16----------|-15--15--15-13-11-13--|
|-10---10-----------|-15--15--15--15--|-15--15--10--12--|-15--15--15-14-12-14--|
|-------------------|-----------------|-17------12--13--|----------------------|
|-------------------|-----------------|-----------------|----------------------|
|-------------------|-13--------------|-----------------|----------------------|
|-------------------|-----------------|-----------------|----------------------|
|
|  E E  E E E E E E    Q   Q   Q   Q     H       Q   Q     H       E  E  E  E
|-------------------|-----------------|--8-------7---8--|----------------------|
|--3-3--3-3-3-3-3-3-|--8---7---5---3--|-----------------|--8-------8--7--5--3--|
|-------------------|-----------------|--6-------5---6--|----------------------|
|-------------------|--6---5---3---1--|-----------------|----------6--5--3--1--|
|
|  E E  E E E E E E    Q   Q   Q   Q     Q   Q   Q   Q     Q   Q   E  E  E  E
|-------------------|-----------------|-----------------|----------------------|
|--6-6--6-6-6-6-6-6-|-----------------|-----------------|----------------------|
|--5-5--5-5-5-5-5-5-|--3---3---3---3--|--8---8---8---8--|--3---3---3--3--3-----|
|--3-3--3-3-3-3-3-3-|--3---3---3---3--|--8---8---8---8--|--3---3---3--3--3--3--|
|-------------------|--1---0----------|--6---6---5---6--|--1---0------0-----3--|
|-------------------|----------3---1--|-----------------|----------3-----3--1--|


                                     Bb5 Bb5/Bb5/Bb5/F
   +E   E  E  E  S  S  S  S  Q        Q   Q   Q   Q
|----------------------------------|-----------------|
|-(13)----13----13----------13-----|-15--15--15--15--|
|-(14)----14-------14----14-14-----|-15--15--15--15--|
|------15----15-------15-----------|-----------------|
|----------------------------------|-----------------|
|----------------------------------|-13--------------|
|----------------------------------|-----------------|
|
|  +E   E  Q     E     E     S S E    Q   Q   Q   Q
|----------------------------------|--3---2----------|
|--(3)--3--3-----3-----3-----3-3-3-|----------5---3--|
|----------------------------------|--1---0----------|
|--(1)--1--1-----1-----1-----1-1-1-|----------3---1--|
|
|  +W                                 Q   Q   Q   Q
|----------------------------------|-----------------|
|----------------------------------|-----------------|
|----------------------------------|--3---3---3---3--|
|--(3)-----------------------------|--3---3---3---3--|
|--(3)-----------------------------|--1---0----------|
|--(1)-----------------------------|----------3---1--|


  Eb5 Eb5 Eb5/Eb5   Bb5 Bb5/Bb5Bb5Bb5F5
   Q   Q   Q   Q     Q   Q   E  E  E  E
|-----------------|---------------------|
|-16--16----------|-15--15--15-13-11-13-|
|-15--15--10--12--|-15--15--15-14-12-14-|
|-17------12--13--|---------------------|
|-----------------|---------------------|
|-----------------|---------------------|
|-----------------|---------------------|
|
|  H       Q   Q     H       E  E  E  E
|--8-------7---8--|---------------------|
|-----------------|--8-------8--7--5--3-|
|--6-------5---6--|---------------------|
|-----------------|----------6--5--3--1-|
|
|  Q   Q   Q   Q     Q   Q   E  E  E  E
|-----------------|---------------------|
|-----------------|---------------------|
|--8---8---8---8--|--3---3---3--3--3----|
|--8---8---8---8--|--3---3---3--3--3--3-|
|--6---6---5---6--|--1---0------0-----3-|
|-----------------|----------3-----3--1-|


                                     Bb5 Bb5/Bb5/Bb5/F
   +E   E  E  E  S  S  S  S  Q        Q   Q   Q   Q
|----------------------------------|-----------------|
|-(13)----13----13----------13-----|-15--15--15--15--|
|-(14)----14-------14----14-14-----|-15--15--15--15--|
|------15----15-------15-----------|-----------------|
|----------------------------------|-----------------|
|----------------------------------|-13--------------|
|----------------------------------|-----------------|
|
|  +E   E  Q     E     E     S S E    Q   Q   Q   Q
|----------------------------------|--3---2----------|
|--(3)--3--3-----3-----3-----3-3-3-|----------5---3--|
|----------------------------------|--1---0----------|
|--(1)--1--1-----1-----1-----1-1-1-|----------3---1--|
|
|  +W                                 Q   Q   Q   Q
|----------------------------------|-----------------|
|----------------------------------|-----------------|
|----------------------------------|--3---3---3---3--|
|--(3)-----------------------------|--3---3---3---3--|
|--(3)-----------------------------|--1---0----------|
|--(1)-----------------------------|----------3---1--|


  Eb5 Eb5 Eb5/Eb5   Bb5 Bb5/Bb5Bb5Bb5F5
   Q   Q   Q   Q     Q   Q   E  E  E  E
|-----------------|---------------------|
|-16--16----------|-15--15--15-13-11-13-|
|-15--15--10--12--|-15--15--15-14-12-14-|
|-17------12--13--|---------------------|
|-----------------|---------------------|
|-----------------|---------------------|
|-----------------|---------------------|
|
|  H       Q   Q     H       E  E  E  E
|--8-------7---8--|---------------------|
|-----------------|--8-------8--7--5--3-|
|--6-------5---6--|---------------------|
|-----------------|----------6--5--3--1-|
|
|  Q   Q   Q   Q     Q   Q   E  E  E  E
|-----------------|---------------------|
|-----------------|---------------------|
|--8---8---8---8--|--3---3---3--3--3----|
|--8---8---8---8--|--3---3---3--3--3--3-|
|--6---6---5---6--|--1---0------0-----3-|
|-----------------|----------3-----3--1-|


                                     Bb5 Bb5/Bb5/Bb5/F
   +E   E  E  E  S  S  S  S  Q        Q   Q   Q   Q
|----------------------------------|-----------------|
|-(13)----13----13----------13-----|-15--15--15--15--|
|-(14)----14-------14----14-14-----|-15--15--15--15--|
|------15----15-------15-----------|-----------------|
|----------------------------------|-----------------|
|----------------------------------|-13--------------|
|----------------------------------|-----------------|
|
|  +E   E  Q     E     E     S S E    Q   Q   Q   Q
|----------------------------------|--3---2----------|
|--(3)--3--3-----3-----3-----3-3-3-|----------5---3--|
|----------------------------------|--1---0----------|
|--(1)--1--1-----1-----1-----1-1-1-|----------3---1--|
|
|  +W                                 Q   Q   Q   Q
|----------------------------------|-----------------|
|----------------------------------|-----------------|
|----------------------------------|--3---3---3---3--|
|--(3)-----------------------------|--3---3---3---3--|
|--(3)-----------------------------|--1---0----------|
|--(1)-----------------------------|----------3---1--|


  Eb5 Eb5 Eb5/Eb5   Bb5 Bb5/Bb5Bb5Bb5F5
   Q   Q   Q   Q     Q   Q   E  E  E  E
|-----------------|---------------------|
|-16--16----------|-15--15--15-13-11-13-|
|-15--15--10--12--|-15--15--15-14-12-14-|
|-17------12--13--|---------------------|
|-----------------|---------------------|
|-----------------|---------------------|
|-----------------|---------------------|
|
|  H       Q   Q     H       E  E  E  E
|--8-------7---8--|---------------------|
|-----------------|--8-------8--7--5--3-|
|--6-------5---6--|---------------------|
|-----------------|----------6--5--3--1-|
|
|  Q   Q   Q   Q     Q   Q   E  E  E  E
|-----------------|---------------------|
|-----------------|---------------------|
|--8---8---8---8--|--3---3---3--3--3----|
|--8---8---8---8--|--3---3---3--3--3--3-|
|--6---6---5---6--|--1---0------0-----3-|
|-----------------|----------3-----3--1-|


                                     Bb5         D5      Eb5
   +E   E  E  E  S  S  S  S  Q        Q   Q   E   E  +E   E
|----------------------------------|-------------14-(14)-15-|
|-(13)----13----13----------13-----|-11--11--11--15-(15)-16-|
|-(14)----14-------14----14-14-----|-10--10--10--14-(14)-15-|
|------15----15-------15-----------|-12--12--12-------------|
|----------------------------------|------------------------|
|----------------------------------|------------------------|
|----------------------------------|------------------------|
|
|  +E   E  Q     E     E     S S E    H      +E   E  +E   E
|----------------------------------|--3------(3)--7--(7)--8-|
|--(3)--3--3-----3-----3-----3-3-3-|------------------------|
|----------------------------------|--1------(1)--5--(5)--6-|
|--(1)--1--1-----1-----1-----1-1-1-|------------------------|
|
|  +W                                 H      +E   E  +E   E
|----------------------------------|------------------------|
|----------------------------------|------------------------|
|----------------------------------|--3------(3)--7--(7)--8-|
|--(3)-----------------------------|--3------(3)--7--(7)--8-|
|--(3)-----------------------------|--1------(1)--5--(5)--6-|
|--(1)-----------------------------|------------------------|


               Dm/GF5    Bb5         D5      Eb5
   +S  S E  Q   Q   Q     Q   Q   E   E  +E   E
|-(15)-----15----------|-------------14-(14)-15---|
|-(16)-----16----------|-11--11--11--15-(15)-16---|
|-(15)-----15--12--10--|-10--10--10--14-(14)-15---|
|--------------12--10--|-12--12--12---------------|
|--------------13--12--|--------------------------|
|----------------------|--------------------------|
|----------------------|--------------------------|
|
|  +H           Q   Q     H      +E   E  +E   E
|--(8)---------12--10--|--------------7--(7)--8---|
|----------------------|--8------(8)--------------|
|--(6)---------10---8--|--------------5--(5)--6---|
|----------------------|--6------(6)--------------|
|
|  +H           Q   Q     H      +E   E  +E   E
|----------------------|--------------------------|
|---------------6---6--|--------------------------|
|--(8)----------7---5--|--3------(3)--7--(7)--8---|
|--(8)----------5---3--|--3------(3)--7--(7)--8---|
|--(6)-----------------|--1------(1)--5--(5)--6---|
|----------------------|--------------------------|


               Dm/GF5    Bb5         D5      Eb5
   +S  S E  Q   Q   Q     Q   Q   E   E  +E   E
|-(15)-----15----------|-------------14-(14)-15-|
|-(16)-----16----------|-11--11--11--15-(15)-16-|
|-(15)-----15--12--10--|-10--10--10--14-(14)-15-|
|--------------12--10--|-12--12--12-------------|
|--------------13--12--|------------------------|
|----------------------|------------------------|
|----------------------|------------------------|
|
|  +H           Q   Q     H      +E   E  +E   E
|--(8)---------12--10--|--------------7--(7)--8-|
|----------------------|--8------(8)--0--(0)----|
|--(6)---------10------|----------------------6-|
|------------------13--|--6------(6)------------|
|
|  +H           Q   Q     H      +E   E  +E   E
|----------------------|------------------------|
|---------------6---6--|------------------------|
|--(8)----------7---5--|--3------(3)--7--(7)--8-|
|--(8)----------5---3--|--3------(3)--7--(7)--8-|
|--(6)-----------------|--1------(1)--5--(5)--6-|
|----------------------|------------------------|


               Dm/GF5    Bb5         D5      Eb5
   +S  S E  Q   Q   Q     Q   Q   E   E  +E   E
|-(15)-----15----------|-------------14-(14)-15--|
|-(16)-----16----------|-11--11--11--15-(15)-16--|
|-(15)-----15--12--10--|-10--10--10--14-(14)-15--|
|--------------12--10--|-12--12--12--------------|
|--------------13--12--|-------------------------|
|----------------------|-------------------------|
|----------------------|-------------------------|
|
|  +H           Q   Q     H      +E   E  +E   E
|--(8)---------12--10--|--------------7--(7)--8--|
|----------------------|--8------(8)-------------|
|--(6)---------10---8--|--------------5--(5)-----|
|----------------------|--6------(6)---------11--|
|
|  +H           Q   Q     H      +E   E  +E   E
|----------------------|-------------------------|
|---------------6---6--|-------------------------|
|--(8)----------7---5--|--3------(3)--7--(7)--8--|
|--(8)----------5---3--|--3------(3)--7--(7)--8--|
|--(6)-----------------|--1------(1)--5--(5)--6--|
|----------------------|-------------------------|


  Eb5
   +Q    H     Q
|-(15)------------|
|-(16)------------|
|-(15)------------|
|-----------------|
|-------13----13--|
|-----------------|
|-----------------|
|
|   H.         Q
|---8----------8--|
|-----------------|
|---6----------6--|
|-----------------|
|
|  +W
|-----------------|
|-----------------|
|--(8)------------|
|--(8)------------|
|--(6)------------|
|-----------------|


 Guitar Solo
  F
   Q                 Q                 Q                 Q
|-------------------------------------------------------------------------|
|-------------------------------------------------------------------------|
|-------------------------------------------------------------------------|
|-15----------------15----------------15----------------15----------------|
|-15----------------15----------------15----------------15----------------|
|-17----------------17----------------17----------------17----------------|
|-------------------------------------------------------------------------|
|
|  E        E        E        E        E        E        E        E
|-------------------------------------------------------------------------|
|-------------------------------------------------------------------------|
|--8--------8--------8--------8--------8--------8--------8--------8-------|
|-------------------------------------------------------------------------|
|
|  |--3--|  |--3--|  |--3--|  |--3--|  |--3--|  |--3--|  |--3--|  |--3--|
|  S  S  S  S  S  S  S  S  S  S  S  S  S  S  S  S  S  S  S  S  S  S  S  S
|-------------------------------------------------------------------------|
|-------------------------------------------------------------------------|
|-------------------------------------------------------14-15-17-14-15-17-|
|-------------------------------------15-17-19-15-17-19-------------------|
|-------------------12-13-15-12-13-15-------------------------------------|
|-13-15-17-13-15-17-------------------------------------------------------|


   Q                 Q                 Q                 Q
|---------------------------------------------------------------|
|---------------------------------------------------------------|
|---------------------------------------------------------------|
|-15----------------15----------------15----------------15------|
|-15----------------15----------------15----------------15------|
|-17----------------17----------------17----------------17------|
|---------------------------------------------------------------|
|
|  E        E        E        E        E        E        E    E
|---------------------------------------------------------------|
|---------------------------------------------------------------|
|--8--------8--------8--------8--------8--------8--------8----8-|
|---------------------------------------------------------------|
|
|  |--3--|  |--3--|  |--3--|  |--3--|  |--3--|  |--3--|
|  S  S  S  S  S  S  S  S  S  S  S  S  S  S  S  S  S  S  Q
|-------------------17-18-20-17-18-20-17-18-20-17-18-20-22b24---|
|-18-20-22-18-20-22---------------------------------------------|
|---------------------------------------------------------------|
|---------------------------------------------------------------|
|---------------------------------------------------------------|
|---------------------------------------------------------------|


  Bb                        Eb        Dm    Eb
   Q   Q   Q   Q              Q    Q   Q     Q
|-------------------------|-----------------------|
|-15--15--15--15----------|--16---16--------------|
|-15--15--15--15----------|--15---15--10----12----|
|-------------------------|--17-------12----13----|
|-------------------------|-----------------------|
|-------------------------|-----------------------|
|-18----------------------|-----------------------|
|
|  Q   Q   Q   Q              H        Q     Q
|-------------------------|---8--------7-----8----|
|--8---7---5---3----------|-----------------------|
|-------------------------|---6--------5-----6----|
|--6---5---3---1----------|-----------------------|
|
|  Q   H       E     E       +H        E  E  E  E
|-20--18------22b23-22b23-|-(22)------22-23-22-18-|
|-------------------------|-----------------------|
|-------------------------|-----------------------|
|-------------------------|-----------------------|
|-------------------------|-----------------------|
|-------------------------|-----------------------|


  Bb                       F
   Q   Q   E     E  E  E    +E   E  E  E  S  S  S  S  Q
|------------------------|----------------------------------|
|-15--15--15----13-11-13-|-(13)----13----13----------13-----|
|-15--15--15----14-12-14-|-(14)----14-------14----14-14-----|
|------------------------|------15----15-------15-----------|
|------------------------|----------------------------------|
|------------------------|----------------------------------|
|------------------------|----------------------------------|
|
|  H       E     E  E  E    +E   E  Q     E     E     S S E
|------------------------|----------------------------------|
|--8-------8-----7--5--3-|--(3)--3--3-----3-----3-----3-3-3-|
|------------------------|----------------------------------|
|----------6-----5--3--1-|--(1)--1--1-----1-----1-----1-1-1-|
|
|                      ~~~~~~~~~
|  H       E     E  E  E    +W
|-20------17b18-17-15----|----------------------------------|
|---------------------18-|-(18)-----------------------------|
|------------------------|----------------------------------|
|------------------------|----------------------------------|
|------------------------|----------------------------------|
|------------------------|----------------------------------|


  Bb                                  Eb        Dm    Eb
   Q         Q           Q     Q        Q    Q   Q     Q
|-----------------------------------|------------------------|
|-15--------15----------15----15----|--16---16---------------|
|-15--------15----------15----15----|--15---15--10----12-----|
|-----------------------------------|--17-------12----13-----|
|-----------------------------------|------------------------|
|-13--------------------------------|------------------------|
|-----------------------------------|------------------------|
|
|  Q         Q           Q     Q        H        Q     Q
|--3---------2----------------------|---8--------7-----8-----|
|------------------------5-----3----|------------------------|
|--1---------0----------------------|---6--------5-----6-----|
|------------------------3-----1----|------------------------|
|
|  S  S S S  S  S  S  S  E  E  E  E    +H        E  E  E  E
|--------------------10-13-11-10-11-|-(11)------10-11-10-----|
|-----------------11----------------|--------------------11--|
|--------------10-------------------|------------------------|
|---------8-12----------------------|------------------------|
|-------8---------------------------|------------------------|
|--6-10-----------------------------|------------------------|


  Bb                          F
   Q      Q   E     E  E  E    +E   E  E  E  S  S  S  S  Q
|---------------------------|----------------------------------|
|-15-----15--15----13-11-13-|-(13)----13----13----------13-----|
|-15-----15--15----14-12-14-|-(14)----14-------14----14-14-----|
|---------------------------|------15----15-------15-----------|
|---------------------------|----------------------------------|
|---------------------------|----------------------------------|
|---------------------------|----------------------------------|
|
|  H          E     E  E  E    +E   E  Q     E     E     S S E
|---------------------------|----------------------------------|
|--8----------8-----7--5--3-|--(3)--3--3-----3-----3-----3-3-3-|
|-------------------0-------|----------------------------------|
|-------------6--------3--1-|--(1)--1--1-----1-----1-----1-1-1-|
|
|  H          E     E  E  E    +W
|-17b18------17b18-17-15-13-|-(13)-----------------------------|
|---------------------------|----------------------------------|
|---------------------------|----------------------------------|
|---------------------------|----------------------------------|
|---------------------------|----------------------------------|
|---------------------------|----------------------------------|


 Chorus
  Bb
   Q          Q          Q          Q
|----------------------------------------------|
|-15---------15---------15---------15----------|
|-15---------15---------15---------15----------|
|----------------------------------------------|
|----------------------------------------------|
|-13-------------------------------------------|
|----------------------------------------------|
|
|  Q          Q          Q          Q
|--3----------2--------------------------------|
|------------------------5----------3----------|
|--1-------------------------------------------|
|-------------5----------3----------1----------|
|
|  S  S S  S  S S  S  S  S  S  S S  S  S S  S
|----------------------------------------------|
|-11------11------11-------11------11------11--|
|----10------10------10-------10------10-------|
|-------8-------8--------8-------8-------8-----|
|----------------------------------------------|
|----------------------------------------------|


  Eb                    Dm         Eb
   Q          Q          Q          Q
|---------------------------------------------|
|-16---------16-------------------------------|
|-15---------15---------10---------12---------|
|-17--------------------12---------13---------|
|---------------------------------------------|
|---------------------------------------------|
|---------------------------------------------|
|
|  H                     Q          Q
|--8---------------------7----------8---------|
|---------------------------------------------|
|--6---------------------5----------6---------|
|---------------------------------------------|
|
|  S S  S  S  S  S  S S  S  S S  S  S S  S  S
|---------------------------------------------|
|------11-------11------11------11------11----|
|-10------10-------10------10------10------10-|
|----8--------8-------8-------8-------8-------|
|---------------------------------------------|
|---------------------------------------------|


  Bb                    Bb Am Gm F
   Q          Q          E  E  E  E    +E   E  E  E  S  S  S  S  Q
|-----------------------------------|----------------------------------|
|-15---------15---------15-13-11-13-|-(13)----13----13----------13-----|
|-15---------15---------15-14-12-14-|-(14)----14-------14----14-14-----|
|-----------------------------------|------15----15-------15-----------|
|-----------------------------------|----------------------------------|
|-----------------------------------|----------------------------------|
|-----------------------------------|----------------------------------|
|
|  H                     E  E  E  E    +E   E  Q     E     E     S S E
|-----------------------------------|----------------------------------|
|--8---------------------8--7--5--3-|--(3)--3--3-----3-----3-----3-3-3-|
|-----------------------------------|----------------------------------|
|------------------------6--5--3--1-|--(1)--1--1-----1-----1-----1-1-1-|
|
|  S  S  S S  S  S S  S  E  E  E  E    +W
|-----------------------------------|----------------------------------|
|----11------11------11-11-10--8----|----------------------------------|
|-------10------10---------------10-|-(10)-----------------------------|
|--8-------8-------8----------------|----------------------------------|
|-----------------------------------|----------------------------------|
|-----------------------------------|----------------------------------|


  Bb
   Q          Q          Q          Q
|---------------------------------------------|
|-15---------15---------15---------15---------|
|-15---------15---------15---------15---------|
|---------------------------------------------|
|---------------------------------------------|
|-13------------------------------------------|
|---------------------------------------------|
|
|  Q          Q          Q          Q
|--3----------2-------------------------------|
|------------------------5----------3---------|
|--1------------------------------------------|
|-------------5----------3----------1---------|
|
|  S  S S  S  S S  S  S  S  S  S S  S  S S  S
|---------------------------------------------|
|-11------11------11-------11------11------11-|
|----10------10------10-------10------10------|
|-------8-------8--------8-------8-------8----|
|---------------------------------------------|
|---------------------------------------------|


  Eb                    Dm         Eb
   Q          Q          Q          Q
|---------------------------------------------|
|-16---------16-------------------------------|
|-15---------15---------10---------12---------|
|-17--------------------12---------13---------|
|---------------------------------------------|
|---------------------------------------------|
|---------------------------------------------|
|
|  H                     Q          Q
|--8---------------------7----------8---------|
|---------------------------------------------|
|--6---------------------5----------6---------|
|---------------------------------------------|
|
|  S S  S  S  S  S  S S  S  S S  S  S S  S  S
|---------------------------------------------|
|------11-------11------11------11------11----|
|-10------10-------10------10------10------10-|
|----8--------8-------8-------8-------8-------|
|---------------------------------------------|
|---------------------------------------------|


  Bb                    Bb Am Gm F
   Q          Q          E  E  E  E    +E   E  E  E  S  S  S  S  Q
|-----------------------------------|----------------------------------|
|-15---------15---------15-13-11-13-|-(13)----13----13----------13-----|
|-15---------15---------15-14-12-14-|-(14)----14-------14----14-14-----|
|-----------------------------------|------15----15-------15-----------|
|-----------------------------------|----------------------------------|
|-----------------------------------|----------------------------------|
|-----------------------------------|----------------------------------|
|
|  H                     E  E  E  E    +E   E  Q     E     E     S S E
|-----------------------------------|----------------------------------|
|--8---------------------8--7--5--3-|--(3)--3--3-----3-----3-----3-3-3-|
|---------------------------0-------|----------------------------------|
|------------------------6-----3--1-|--(1)--1--1-----1-----1-----1-1-1-|
|
|  S  S  S S  S  S S  S  E  E  E  E    +W
|-----------------------------------|----------------------------------|
|----11------11------11-11-10--8----|----------------------------------|
|-------10------10---------------10-|-(10)-----------------------------|
|--8-------8-------8----------------|----------------------------------|
|-----------------------------------|----------------------------------|
|-----------------------------------|----------------------------------|


  Bb
   Q          Q          Q          Q
|---------------------------------------------|
|-15---------15---------15---------15---------|
|-15---------15---------15---------15---------|
|---------------------------------------------|
|---------------------------------------------|
|-13------------------------------------------|
|---------------------------------------------|
|
|  Q          Q          Q          Q
|--3----------2-------------------------------|
|------------------------5----------3---------|
|--1------------------------------------------|
|-------------5----------3----------1---------|
|
|  S  S S  S  S S  S  S  S  S  S S  S  S S  S
|---------------------------------------------|
|-11------11------11-------11------11------11-|
|----10------10------10-------10------10------|
|-------8-------8--------8-------8-------8----|
|---------------------------------------------|
|---------------------------------------------|


  Eb                    Dm         Eb
   Q          Q          Q          Q
|---------------------------------------------|
|-16---------16-------------------------------|
|-15---------15---------10---------12---------|
|-17--------------------12---------13---------|
|---------------------------------------------|
|---------------------------------------------|
|---------------------------------------------|
|
|  H                     Q          Q
|--8---------------------7----------8---------|
|---------------------------------------------|
|--6---------------------5----------6---------|
|---------------------------------------------|
|
|  S S  S  S  S  S  S S  S  S S  S  S S  S  S
|---------------------------------------------|
|------11-------11------11------11------11----|
|-10------10-------10------10------10------10-|
|----8--------8-------8-------8-------8-------|
|---------------------------------------------|
|---------------------------------------------|


  Bb                    Bb Am Gm F
   Q          Q          E  E  E  E    +E   E  E  E  S  S  S  S  Q
|-----------------------------------|----------------------------------|
|-15---------15---------15-13-11-13-|-(13)----13----13----------13-----|
|-15---------15---------15-14-12-14-|-(14)----14-------14----14-14-----|
|-----------------------------------|------15----15-------15-----------|
|-----------------------------------|----------------------------------|
|-----------------------------------|----------------------------------|
|-----------------------------------|----------------------------------|
|
|  H                     E  E  E  E    +E   E  Q     E     E     S S E
|-----------------------------------|----------------------------------|
|--8---------------------8--7--5--3-|--(3)--3--3-----3-----3-----3-3-3-|
|-----------------------------------|----------------------------------|
|------------------------6--5--3--1-|--(1)--1--1-----1-----1-----1-1-1-|
|
|  S  S  S S  S  S S  S  E  E  E  E    +W
|-----------------------------------|----------------------------------|
|----11------11------11-11-10--8----|----------------------------------|
|-------10------10---------------10-|-(10)-----------------------------|
|--8-------8-------8----------------|----------------------------------|
|-----------------------------------|----------------------------------|
|-----------------------------------|----------------------------------|


  Bb
   Q          Q          Q          Q
|---------------------------------------------|
|-15---------15---------15---------15---------|
|-15---------15---------15---------15---------|
|---------------------------------------------|
|---------------------------------------------|
|-13------------------------------------------|
|---------------------------------------------|
|
|  Q          Q          Q          Q
|--3----------2-------------------------------|
|------------------------5----------3---------|
|--1------------------------------------------|
|-------------5----------3----------1---------|
|
|  S  S S  S  S S  S  S  S  S  S S  S  S S  S
|---------------------------------------------|
|-11------11------11-------11------11------11-|
|----10------10------10-------10------10------|
|-------8-------8--------8-------8-------8----|
|---------------------------------------------|
|---------------------------------------------|


  Eb                    Dm         Eb
   Q          Q          Q          Q
|---------------------------------------------|
|-16---------16-------------------------------|
|-15---------15-------------------------------|
|-17--------------------15---------17---------|
|-----------------------17---------18---------|
|---------------------------------------------|
|---------------------------------------------|
|
|  H                     Q          Q
|--8---------------------7----------8---------|
|---------------------------------------------|
|--6---------------------5----------6---------|
|---------------------------------------------|
|
|  S S  S  S  S  S  S S  S  S S  S  S S  S  S
|---------------------------------------------|
|------11-------11------11------11------11----|
|-10------10-------10------10------10------10-|
|----8--------8-------8-------8-------8-------|
|---------------------------------------------|
|---------------------------------------------|


  Bb                    Bb Am Gm F
   Q          Q          E  E  E  E    +W
|-----------------------------------|-------------|
|-15---------15---------15-13-11-13-|-(13)--------|
|-15---------15---------15-14-12-14-|-(14)--------|
|-----------------------------------|-------------|
|-----------------------------------|-------------|
|-----------------------------------|-------------|
|-----------------------------------|-------------|
|
|  H                     E  E  E  E    +W
|-----------------------------------|-------------|
|--8---------------------8--7--5--3-|--(3)--------|
|---------------------------0-------|-------------|
|------------------------6-----3--1-|--(1)--------|
|
|  S  S  S S  S  S S  S  E  E  E  E    +W
|-----------------------------------|-------------|
|----11------11------11-11-10--8----|-------------|
|-------10------10---------------10-|-(10)--------|
|--8-------8-------8----------------|-------------|
|-----------------------------------|-------------|
|-----------------------------------|-------------|


 Outro
  H.=H
  Bb          F             Eb          F             F
   E  E  E  E  E  E  E  E    E  E  E  E  E  E  E  E     W
|-------------------------|-------------------------|--------*|
|-15----15----13----13----|-11----11----13----13----|-^15----*|
|-15----15----14----14----|-12----12----14----14----|-^15----*|
|----15----15----15----15-|----13----13----15----15-|-^15----*|
|-------------------------|-------------------------|-^13----*|
|-------------------------|-------------------------|--------*|
|-------------------------|-------------------------|--------*|
|
|  W                         W                          W
|-------------------------|-------------------------|--------*|
|-------------------------|-------------------------|--------*|
|-------------------------|-------------------------|--------*|
|-------------------------|-------------------------|--------*|
|
|  W                         W                          W
|-------------------------|-------------------------|--------*|
|-------------------------|-------------------------|--------*|
|-------------------------|-------------------------|--------*|
|-------------------------|-------------------------|--------*|
|-------------------------|-------------------------|--------*|
|-------------------------|-------------------------|--------*|



Duration Legend
---------------
W - whole; H - half; Q - quarter; E - 8th; S - 16th; T - 32nd; X - 64th; a - acciaccatura
+ - note tied to previous; . - note dotted; .. - note double dotted
Uncapitalized letters represent notes that are staccato (1/2 duration)
Irregular groupings are notated above the duration line
Duration letters will always appear directly above the note/fret number it represents the
duration for.  Duration letters with no fret number below them represent rests.  Multi-
bar rests are notated in the form Wxn, where n is the number of bars to rest for.  Low
melody durations appear below the staff

Tablature Legend
----------------
 h   - hammer-on
 p   - pull-off
 b   - bend
 pb  - pre-bend
 r   - bend release (if no number after the r, then release immediately)
 /\  - slide into or out of (from/to "nowhere")
 s   - legato slide
 S   - shift slide
<n> - natural harmonic
[n]  - artificial harmonic
n(n) - tapped harmonic
 ~   - vibrato
 tr  - trill
 T   - tap
 TP  - trem. picking
 PM  - palm muting
\n/  - tremolo bar dip; n = amount to dip
 \n  - tremolo bar down
 n/  - tremolo bar up
/n\  - tremolo bar inverted dip
 =   - hold bend; also acts as connecting device for hammers/pulls
 <> - volume swell (louder/softer)
 x   - on rhythm slash represents muted slash
 o   - on rhythm slash represents single note slash

Misc Legend
-----------
 |  - bar
||  - double bar
||o - repeat start
o|| - repeat end
*|  - double bar (ending)
 :  - bar (freetime)
 $  - Segno
 &  - Coda
Tempo markers - <E/E./Q/Q./H/H.> = BPM(8/16=s8/s16), where s8 = swing 8ths, s16 = swing 16ths

comments
We did not receive enough feedback on this tab! Please rate:
print report bad tab
1 2 3 4 5
1 comment total.
0 reply
itchy guitar wrote on May 18 2009, 07:03 pm

Amazing.

I want to post or [tab]
guest
You may want to rate the tab now too:
select rating
Please do not post tabs as comments. Select "correction" instead!