Oops, an error
Loading. Please wait.

Gutter Ballet Tab

9,386 views 33 this week
4 commentsread comments
1 2 3 4 5
excellent!
x 5
Autoscroll
+/-
esc
set tempo
stop
Contributor
WARNING: You are trying to view
                                    content from Ultimate-Guitar.com
                                    in an unauthorized application,
                                    which is prohibited.

                                    Please use an official Ultimate
                                    Guitar Tabs application for iPhone,
                                    iPad or Android to access legitimate
                                    chords, guitar, bass, and drum tabs
                                    from Ultimate-Guitar.com database.

                                    Type "ultimate guitar tabs" in Apple
                                    App Store's or Android Market's
                                    search to find the application.
Gutter Ballet
Savatage
Tab: Randy G



Intro: 2x
e|-----------|-------------|
B|--3----1---|----5----3---|
G|--3----2---|----5----4---|
D|--3----3---|----5----5---|
A|--1----3---|----3----5---|
E|-------1---|---------3---|

Intro 2:
e|-----|-----|-----|-----|
B|-----|-----|-----|-----|
G|--7--|--7--|--7--|--7--|
D|--7--|--7--|--7--|--7--|
A|--5--|--5--|--5--|--5--|
E|-----|-----|-----|-----|

Riff 1:
e|-----------------------------|--------------------------------|
B|-----------------------------|--------------------------------|
G|--7------5------7----5-----7-|--------7------10----10\-12-12\-|
D|--7------5------7----5-----7-|--------7------10----10\-12-12\-|
A|--5------3------5----3-----5-|--------5------8-----8\--10-10\-|
E|-----0-0----0-0----0-----0---|----0-0----0-0-----0------------|

Riff 2: 3x                   H.A.
e|-----------------------------|--------------------------------|
B|-----------------------------|--------------------------------|
G|--7------5------7----5-----7-|--------7------10----10\-12-12\-|Guit. 1
D|--7------5------7----5-------|--------7------10----10\-12-12\-|
A|--5------3------5----3-------|--------5------8-----8\--10-10\-|
E|-----0-0----0-0----0-----0---|----0-0----0-0-----0------------|
 |                                                              |
e|-----------------------------|--------------------------------|
B|-----------------------------|--------------------------------|
G|--7------5------7----5-----7-|--------7------10----10\-12-12\-|Guit. 2
D|--7------5------7----5-----7-|--------7------10----10\-12-12\-|
A|--5------3------5----3-----5-|--------5------8-----8\--10-10\-|
E|-----0-0----0-0----0-----0---|----0-0----0-0-----0------------|

e|----------|
B|----------|
G|--12~~~~--|
D|--12~~~~--|
A|--10~~~~--|
E|----------|


e|------------------|------------------|----------------|
B|------------------|------------------|----------------|
G|------2-----------|--2---------------|--2-------------|
D|------0-----------|--0-----7---------|--0-------------|
A|-0-3----------0-3-|--------5-----0-3-|------------3-5-|
E|------------------|--------0---------|----------------|

e|--------------------|--------------|-----------------|
B|--------------------|--------------|-----------------|
G|--5--------3--------|--2-----------|--2--------------|
D|--5--------3--------|--0-----------|--0-----7--------|
A|--3----3-5-1----0-3-|----------0-3-|--------5----0-3-|
E|--------------------|--------------|--------0--------|

e|------------|------------------------|---------------|
B|------------|------------------------|--5--5--5------|
G|--2---------|--5--------3--3--3------|--5--5--5--5\7-|
D|--0---------|--5--------3--3--3------|--5--5--5--5\7-|
A|--------3-5-|--3----0-5-1--1--1--1h3-|--0--0--0------|
E|------------|------------------------|---------------|


e|-----------------------------|--------------------------|
B|-----------------------------|--------------------------|
G|--7------5------7------5--3--|------------2-------------|Guit. 1 & 2
D|--7------5------7------5--3--|------------2--7--5-3-----|
A|--5------3------5------3--1--|------1--0--0---------5-3-|
E|-----0-0----0-0----0-0-------|--------------------------|

e|-----------------------------|----------------------|-----------------------------|
B|-----------------------------|---------13b(15)r(13)~|~~~~~~~~~~~~~~~~~~-----------|
G|--7------5------7------5--3--|--3--2--2-------------|-----------------------------|Guit.1
D|--7------5------7------5--3--|--3--2--2-------------|-----------------------------|
A|--5------3------5------3--1--|--1--0--0-------------|-----------------------------|
E|-----0-0----0-0----0-0-------|----------------------|-----------------------------|
 | 
e|-----------------------------|----------------------|-----------------------------|
B|-----------------------------|----------------------|-----------------------------|
G|--7------5------7------5--3--|--3--2--2---2---------|--7------5------7------5--3--|Guit.2
D|--7------5------7------5--3--|--3--2--2---2-5-3-----|--7------5------7------5--3--|
A|--5------3------5------3--1--|--1--0--0---0-----5-3-|--5------3------5------3--1--|
E|-----0-0----0-0----0-0-------|----------------------|-----0-0----0-0----0-0-------|

e|-----------------------|-------------------------|
B|-----------------------|-----------------6----8--|
G|------3--3/5-5----5----|--7--------------5----7--|Guit. 1 & 2
D|------3--3/5-5----5----|--7--------------3----5--|
A|------1------0----0----|--5--5--5--5--5--3----5--|
E|-----------------------|-----0--0--0--0--3----5--|

e|------------------|
B|------------------|
G|------------------|
D|--------12/-------|
A|--------12/-------|
E|--------12/-15\---|

Riff 3: 2x
e|------------------5------------|------------------5------------|
B|----5-6-5-6-8-6-5---8-6-5-6~~~-|----5-6-5-6-8-6-5---8-6-5-6~~~-|
G|--7----------------------------|--7----------------------------|Guit. 1
D|-------------------------------|-------------------------------|
A|-------------------------------|-------------------------------|
E|-------------------------------|-------------------------------|
 |                                                               |
e|-------------------------------|-------------------------------|
B|-------------------------------|-------------------------------|
G|-----------7-------------7-----|-----------5-------------5-----|Guit. 2
D|-----------7-------------7-----|-----------5-------------5-----|
A|-----------5-------------5-----|-----------3-------------3-----|
E|---0-0-0-0-------0-0-0-0-------|---0-0-0-0-------0-0-0-0-------|

e|------------------5------------|--6-5---5---6-5---5---5--5--|
B|----5-6-5-6-8-6-5---8-6-5-6~~~-|------8---------8-----------|
G|--7----------------------------|----------------------------|Guit. 1
D|-------------------------------|----------------------------|
A|-------------------------------|----------------------------|
E|-------------------------------|----------------------------|
 |                                                            |
e|-------------------------------|----------------------------|
B|-------------------------------|----------------------------|
G|-----------3-------------3-----|--------2---------2---2--2--|Guit. 2
D|-----------3-------------3-----|--------2---------2---2--2--|
A|-----------1-------------1-----|--1-0---0---1-0---0---0--0--|
E|---0-0-0-0-------0-0-0-0-------|------5---------5-----------|


e|--------------|------------------|----------------|
B|--------------|------------------|----------------|
G|--2-----------|--2---------------|--2-------------|
D|--0-----------|--0-----7---------|--0-------------|
A|----------0-3-|--------5-----0-3-|------------3-5-|
E|--------------|--------0---------|----------------|

e|--------------------|--------------|-----------------|
B|--------------------|--------------|-----------------|
G|--5--------3--------|--2-----------|--2--------------|
D|--5--------3--------|--0-----------|--0-----7--------|
A|--3----3-5-1----0-3-|----------0-3-|--------5----0-3-|
E|--------------------|--------------|--------0--------|

e|------------|------------------------|---------------|
B|------------|------------------------|--5--5--5------|
G|--2---------|--5--------3--3--3------|--5--5--5--5\7-|
D|--0---------|--5--------3--3--3------|--5--5--5--5\7-|
A|--------3-5-|--3----0-5-1--1--1--1h3-|--0--0--0------|
E|------------|------------------------|---------------|


e|-----------------------------|--------------------------|
B|-----------------------------|--------------------------|
G|--7------5------7------5--3--|------------2-------------|Guit. 1 & 2
D|--7------5------7------5--3--|------------2--7--5-3-----|
A|--5------3------5------3--1--|------1--0--0---------5-3-|
E|-----0-0----0-0----0-0-------|--------------------------|

e|-----------------------------|---------20b(22)r(20~~|~~~~~~~~~~~~~~~~~~-----------|
B|-----------------------------|----------------------|-----------------------------|
G|--7------5------7------5--3--|--3--2--2-------------|-----------------------------|Guit.1
D|--7------5------7------5--3--|--3--2--2-------------|-----------------------------|
A|--5------3------5------3--1--|--1--0--0-------------|-----------------------------|
E|-----0-0----0-0----0-0-------|----------------------|-----------------------------|
 | 
e|-----------------------------|----------------------|-----------------------------|
B|-----------------------------|----------------------|-----------------------------|
G|--7------5------7------5--3--|--3--2--2---2---------|--7------5------7------5--3--|Guit.2
D|--7------5------7------5--3--|--3--2--2---2-5-3-----|--7------5------7------5--3--|
A|--5------3------5------3--1--|--1--0--0---0-----5-3-|--5------3------5------3--1--|
E|-----0-0----0-0----0-0-------|----------------------|-----0-0----0-0----0-0-------|

e|-----------------------|-------------------------|
B|-----------------------|-----------------6----8--|
G|------3--3/5-5----5----|--7--------------5----7--|Guit. 1 & 2
D|------3--3/5-5----5----|--7--------------3----5--|
A|------1------0----0----|--5--5--5--5--5--3----5--|
E|-----------------------|-----0--0--0--0--3----5--|

e|------------------|
B|------------------|
G|------------------|
D|--------12/-------|
A|--------12/-------|
E|--------12/-15\---|

Riff 3: 2x
e|------------------5------------|------------------5------------|
B|----5-6-5-6-8-6-5---8-6-5-6~~~-|----5-6-5-6-8-6-5---8-6-5-6~~~-|
G|--7----------------------------|--7----------------------------|Guit. 1
D|-------------------------------|-------------------------------|
A|-------------------------------|-------------------------------|
E|-------------------------------|-------------------------------|
 |                                                               |
e|-------------------------------|-------------------------------|
B|-------------------------------|-------------------------------|
G|-----------7-------------7-----|-----------5-------------5-----|Guit. 2
D|-----------7-------------7-----|-----------5-------------5-----|
A|-----------5-------------5-----|-----------3-------------3-----|
E|---0-0-0-0-------0-0-0-0-------|---0-0-0-0-------0-0-0-0-------|

e|------------------5------------|--6-5---5---6-5---5---5--5--|
B|----5-6-5-6-8-6-5---8-6-5-6~~~-|------8---------8-----------|
G|--7----------------------------|----------------------------|Guit. 1
D|-------------------------------|----------------------------|
A|-------------------------------|----------------------------|
E|-------------------------------|----------------------------|
 |                                                            |
e|-------------------------------|----------------------------|
B|-------------------------------|----------------------------|
G|-----------3-------------3-----|--------2---------2---2--2--|Guit. 2
D|-----------3-------------3-----|--------2---------2---2--2--|
A|-----------1-------------1-----|--1-0---0---1-0---0---0--0--|
E|---0-0-0-0-------0-0-0-0-------|------5---------5-----------|

e|--6-5---5---6-5---5---5--5--|
B|------8---------8-----------|
G|----------------------------|Guit. 1
D|----------------------------|
A|----------------------------|
E|----------------------------|
 |                            |
e|----------------------------|
B|----------------------------|
G|--------2---------2---2--2--|Guit. 2
D|--------2---------2---2--2--|
A|--1-0---0---1-0---0---0--0--|
E|------5---------5-----------|


e|-----------------------------|--------------------------------|
B|-----------------------------|--------------------------------|
G|--7------5------7----5-----7-|--------7------10----10\-12-12\-|
D|--7------5------7----5-----7-|--------7------10----10\-12-12\-|
A|--5------3------5----3-----5-|--------5------8-----8\--10-10\-|
E|-----0-0----0-0----0-----0---|----0-0----0-0-----0------------|

e|----------------------|----------------------|
B|--3---------5---------|--3---------5---------|
G|--3---------5---------|--3---------5---------|
D|--3----3----5----5----|--3----3----5----5----|
A|--1----3----3----5----|--1----3----3----5----|
E|-------1---------3----|-------1---------3----|
                                                              2x
e|-----------------------------|--------------------------------|
B|-----------------------------|--------------------------------|
G|--7------5------7----5-----7-|--------7------10----10\-12-12\-|
D|--7------5------7----5-----7-|--------7------10----10\-12-12\-|
A|--5------3------5----3-----5-|--------5------8-----8\--10-10\-|
E|-----0-0----0-0----0-----0---|----0-0----0-0-----0------------|
                                             2x
e|----------------------|----------------------|
B|--3---------5---------|--3---------5---------|
G|--3---------5---------|--3---------5---------|
D|--3----3----5----5----|--3----3----5----5----|
A|--1----3----3----5----|--1----3----3----5----|
E|-------1---------3----|-------1---------3----|

Solo:                   
e|--6-5---5---6-5---5-------------|
B|------8---------8-----15~~~~~~--|
G|--------------------------------|
D|--------------------------------|
A|--------------------------------|
E|--------------------------------|

e|----------------------------------------------------|
B|------13~~~~~~~---10h11p10~~~-----------------------|
G|--------------------------------12-10\9~~~---9h10p9-|
D|----------------------------------------------------|
A|----------------------------------------------------|
E|----------------------------------------------------|

e|--------------------------------10h12h13p12p10-12p10-------------|
B|--------10h13p10h12h13p10h12h13----------------------13p10h12h13-|
G|-----------------------------------------------------------------|
D|-12~~~-----------------------------------------------------------|
A|-----------------------------------------------------------------|
E|-----------------------------------------------------------------|

e|-10h12h13p12p10-------------10h13p12p10-12p10----10h12h13-13b(15)~~-|
B|----------------13p10h12h13-------------------13--------------------|
G|--------------------------------------------------------------------|
D|--------------------------------------------------------------------|
A|--------------------------------------------------------------------|
E|--------------------------------------------------------------------|
 --------------------------------------------------------------------|
e|-13b(16)--13b(16)-13b(16)13b(17)13b(17)-13b(17)-13b(17)-13b(17)-13b(17)-13b(16)-|
B|--------------------------------------------------------------------------------|
G|--------------------------------------------------------------------------------|
D|--------------------------------------------------------------------------------|
A|--------------------------------------------------------------------------------|
E|--------------------------------------------------------------------------------|
  -----------------------------------------|
e|-13b(15)-13b(15)-13b(15)-13b(14)-13b(14)-13b(14)-13--13--13--13--12b(13)r(12)-|
B|------------------------------------------------------------------------------|
G|------------------------------------------------------------------------------|
D|------------------------------------------------------------------------------|
A|------------------------------------------------------------------------------|
E|------------------------------------------------------------------------------|
                                                                     H.A.      H.A.
e|--12b(13)r(12)--12-13p12p10h12p10\8-10p8/9-7p5-----------------|------------------|
B|-----------------------------------------------8p6-6p5h6p5-----|---3-----3---3----|
G|-----------------------------------------------------------7\5~|---------0---0----|
D|---------------------------------------------------------------|------------------|
A|---------------------------------------------------------------|------------------|
E|---------------------------------------------------------------|------------------|

e|--10----------------------12----------------------|
B|-----11----11-13-10----10----13----13-15-12----12-|
G|--------10----------10----------12----------12----|Guit. 3
D|--------------------------------------------------|
A|--------------------------------------------------|
E|--------------------------------------------------|

e|--10----------------------12----------------------|
B|-----11----11-13-10----10----13----13-15-12----12-|
G|--------10----------10----------12----------12----|Guit. 3
D|--------------------------------------------------|
A|--------------------------------------------------|
E|--------------------------------------------------|
 |                                                  |
e|-----------------------------------------------17-|
B|--------------------------------------------18----|
G|-----------------------------------------19-------|Guit. 1
D|--------------------------------------------------|
A|--------------------------------------------------|
E|--------------------------------------------------|

e|--22~---------17-22--22b(25)-22b(25)-22b(25)-22b(25)-|
B|-----------18----------------------------------------|
G|--------19-------------------------------------------|
D|-----------------------------------------------------|
A|-----------------------------------------------------|
E|-----------------------------------------------------|

e|------22-20-22~----22\--------12-13-|
B|---------------------------12-------|
G|------------------------12----------|
D|----------------------x-------------|
A|----------------------x-------------|
E|------------------------------------|

e|--15p13p12h13p12-------12------------------------------------------------------------|
B|-----------------15p12----15p13p12h13p12----12---------------------------------------|
G|-----------------------------------------14----12-10h12p10\9h10-12p10p9h10p9----9----|
D|-----------------------------------------------------------------------------12---12-|
A|-------------------------------------------------------------------------------------|
E|-------------------------------------------------------------------------------------|

e|----------------------------------------------------------10------------|
B|--------------------------------13p10------------13p10-------10-13b(15)-|
G|------------------9h10h12p10h12-------12b(13)-10-------12---------------|
D|--9h10h12-9h10h12-------------------------------------------------------|
A|------------------------------------------------------------------------|
E|------------------------------------------------------------------------|

e|--------------------|
B|--13b(15)---13\-----|
G|--------------------|
D|--------------------|
A|--------------------|
E|--------------------|

e|--10----------------------12----------------------|
B|-----11----11-13-10----10----13----13-15-12----12-|
G|--------10----------10----------12----------12----|Guit. 3 4x
D|--------------------------------------------------|
A|--------------------------------------------------|
E|--------------------------------------------------|

e|---------------------------------------|
B|--13b(15)---13b(15)r(13)~~---------13--|
G|---------------------------------------|
D|---------------------------------------|
A|---------------------------------------|
E|---------------------------------------|

e|--15--15b(16)-15b(17)-15b(17)15b(17)15b(17)15b(17)15b(17)15b(17)~~--|
B|--------------------------------------------------------------------|
G|--------------------------------------------------------------------|
D|--------------------------------------------------------------------|
A|--------------------------------------------------------------------|
E|--------------------------------------------------------------------|

e|----------------------|
B|--15~~~~~---15\\\-----|
G|----------------------|
D|----------------------|
A|----------------------|
E|----------------------|

Canto 3:
e|------------------|------------------|----------------|
B|------------------|------------------|----------------|
G|------2-----------|--2---------------|--2-------------|
D|------0-----------|--0-----7---------|--0-------------|
A|-0-3----------0-3-|--------5-----0-3-|------------3-5-|
E|------------------|--------0---------|----------------|

e|--------------------|--------------|-----------------|
B|--------------------|--------------|-----------------|
G|--5--------3--------|--2-----------|--2--------------|
D|--5--------3--------|--0-----------|--0-----7--------|
A|--3----3-5-1----0-3-|----------0-3-|--------5----0-3-|
E|--------------------|--------------|--------0--------|

e|------------|------------------------|---------------|
B|------------|------------------------|--5--5--5------|
G|--2---------|--5--------3--3--3------|--5--5--5--5\7-|
D|--0---------|--5--------3--3--3------|--5--5--5--5\7-|
A|--------3-5-|--3----0-5-1--1--1--1h3-|--0--0--0------|
E|------------|------------------------|---------------|

Refrão:
e|-----------------------------|--------------------------|
B|-----------------------------|--------------------------|
G|--7------5------7------5--3--|------------2-------------|Guit. 1 & 2
D|--7------5------7------5--3--|------------2--7--5-3-----|
A|--5------3------5------3--1--|------1--0--0---------5-3-|
E|-----0-0----0-0----0-0-------|--------------------------|


e|-----------------------------|---------20b(22)r(20~~|~~~~~~~~~~~~~~~~~~-----------|
B|-----------------------------|----------------------|-----------------------------|
G|--7------5------7------5--3--|--3--2--2-------------|-----------------------------|Guit.1
D|--7------5------7------5--3--|--3--2--2-------------|-----------------------------|
A|--5------3------5------3--1--|--1--0--0-------------|-----------------------------|
E|-----0-0----0-0----0-0-------|----------------------|-----------------------------|
 |
e|-----------------------------|----------------------|-----------------------------|
B|-----------------------------|----------------------|-----------------------------|
G|--7------5------7------5--3--|--3--2--2---2---------|--7------5------7------5--3--|Guit.2
D|--7------5------7------5--3--|--3--2--2---2-5-3-----|--7------5------7------5--3--|
A|--5------3------5------3--1--|--1--0--0---0-----5-3-|--5------3------5------3--1--|
E|-----0-0----0-0----0-0-------|----------------------|-----0-0----0-0----0-0-------|

e|-----------------------|-------------------------|
B|-----------------------|-----------------6----8--|
G|------3--3/5-5----5----|--7--------------5----7--|Guit. 1 & 2
D|------3--3/5-5----5----|--7--------------3----5--|
A|------1------0----0----|--5--5--5--5--5--3----5--|
E|-----------------------|-----0--0--0--0--3----5--|

e|------------------|
B|------------------|
G|------------------|
D|--------12/-------|
A|--------12/-------|
E|--------12/-15\---|

Riff 4: 3x
e|------------------5------------|------------------5------------|
B|----5-6-5-6-8-6-5---8-6-5-6~~~-|----5-6-5-6-8-6-5---8-6-5-6~~~-|
G|--7----------------------------|--7----------------------------|Guit. 1
D|-------------------------------|-------------------------------|
A|-------------------------------|-------------------------------|
E|-------------------------------|-------------------------------|
 |                                                               |
e|-------------------------------|-------------------------------|
B|-------------------------------|-------------------------------|
G|---7---------------------5-----|---5---------------------3-----|Guit. 2
D|---7---------------------5-----|---5---------------------3-----|
A|---5---------------------3-----|---3---------------------1-----|
E|---0---------------------------|-------------------------------|

e|------------------5------------|----------------------------|
B|----5-6-5-6-8-6-5---8-6-5-6~~~-|---10---------8---6---5-----|
G|--7----------------------------|----9---------7---5---4-----|Guit. 1
D|-------------------------------|----7---------5---3---2-----|
A|-------------------------------|----7---------5---3---2-----|
E|-------------------------------|----0---------3---1---0-----|
 |                                                            |
e|-------------------------------|----------------------------|
B|-------------------------------|----------------------------|
G|---3---------------------2-----|--2-------------------------|Guit. 2
D|---3---------------------2-----|--2-----------5---3---2-----|
A|---1---------------------0-----|--0-----------5---3---2-----|
E|-------------------------------|--------------3---1---0-----|

Riff 3:
e|------------------5------------|------------------5------------|
B|----5-6-5-6-8-6-5---8-6-5-6~~~-|----5-6-5-6-8-6-5---8-6-5-6~~~-|
G|--7----------------------------|--7----------------------------|Guit. 1
D|-------------------------------|-------------------------------|
A|-------------------------------|-------------------------------|
E|-------------------------------|-------------------------------|
 |                                                               |
e|-------------------------------|-------------------------------|
B|-------------------------------|-------------------------------|
G|-----------7-------------7-----|-----------5-------------5-----|Guit. 2
D|-----------7-------------7-----|-----------5-------------5-----|
A|-----------5-------------5-----|-----------3-------------3-----|
E|---0-0-0-0-------0-0-0-0-------|---0-0-0-0-------0-0-0-0-------|

e|------------------5------------|--6-5---5---6-5---5---5--5--|
B|----5-6-5-6-8-6-5---8-6-5-6~~~-|------8---------8-----------|
G|--7----------------------------|----------------------------|Guit. 1
D|-------------------------------|----------------------------|
A|-------------------------------|----------------------------|
E|-------------------------------|----------------------------|
 |                                                            |
e|-------------------------------|----------------------------|
B|-------------------------------|----------------------------|
G|-----------3-------------3-----|--------2---------2---2--2--|Guit. 2
D|-----------3-------------3-----|--------2---------2---2--2--|
A|-----------1-------------1-----|--1-0---0---1-0---0---0--0--|
E|---0-0-0-0-------0-0-0-0-------|------5---------5-----------|

Riff 5: 2x
e|--6-5---5---6-5---5---5--5--|
B|------8---------8-----------|
G|----------------------------|Guit. 1
D|----------------------------|
A|----------------------------|
E|----------------------------|
 |                            |
e|----------------------------|
B|----------------------------|
G|--------2---------2---2--2--|Guit. 2
D|--------2---------2---2--2--|
A|--1-0---0---1-0---0---0--0--|
E|------5---------5-----------|


e|---------|
B|--3~~~~--|
G|--2~~~~--|Guit. 1
D|--0~~~~--|
A|--0~~~~--|
E|---------|
 |         |
e|---------|
B|---------|
G|--7~~~~--|Guit. 2
D|--7~~~~--|
A|--5~~~~--|
E|---------|
4 comments total. Showing first comments.
0 reply
Rajah wrote on December 11 2004, 12:00 am

You forgot the most important thing - it's drop D tuning.

0 reply
hepzibahbaptist wrote on March 2 2006, 07:37 pm

yeah
i was like this doesnt sound good
its got to be in drop d

0 reply
Ditachi07 wrote on July 22 2008, 01:26 pm

nice tab, of coarse the tuning, but great, i love riff 3

I want to post or [tab]
guest
You may want to rate the tab now too:
select rating
Please do not post tabs as comments. Select "correction" instead!