Oops, an error
Loading. Please wait.

Handful Of Rain Tab

ver1
ver1

Whole song

More versions @911Tabs.com
2,330 views 15 this week
no commentswrite comment
1 2 3 4 5
not so good
x 1
Autoscroll
+/-
esc
set tempo
stop
Contributor
WARNING: You are trying to view
                                    content from Ultimate-Guitar.com
                                    in an unauthorized application,
                                    which is prohibited.

                                    Please use an official Ultimate
                                    Guitar Tabs application for iPhone,
                                    iPad or Android to access legitimate
                                    chords, guitar, bass, and drum tabs
                                    from Ultimate-Guitar.com database.

                                    Type "ultimate guitar tabs" in Apple
                                    App Store's or Android Market's
                                    search to find the application.
Savatage is best
This is tab...


E|---------------------------------------------------------------------------|
B|---------------------------------------------------------------------------|
G|o-------------------------------------------------------------------------o|
D|o-------0-----------0---------h------------0----------0-------------------o|
A|----------------------------3-^-5------------------------------3h5---------|
D|-0----0---0------0----0-0-----------0----0---0------0---0-0----------------|


E|---------------------------------------------------------------------------|
B|---------------------------------------------------------------------------|
G|---------------------------------------------------------------------------|
D|--------0-----------0---------h------------0----------0----------h---------|
A|----------------------------3-^-5------------------------------3-^-5-------|
D|-0----0---0------0----0-0-----------0----0---0------0---0-0----------------|
    The night is growing dark

E|---------------------------------------------------------------------------|
B|---------------------------------------------------------------------------|
G|---------------------------------------------------------------------------|
D|--------0-----------0---------h------------0----------0--------------------|
A|----------------------------3-^-5------------------------------------------|
D|-0----0---0------0----0-0-----------0----0---0------0---0-0----------------|
    From somewhere deep within'

E|---0----0-0----0----0-0----0----0-0------0--------------0------------------|
B|---3----3-3----3----3-3----3----3-3---------3------------------------------|
G|---2----2-2----2----2-2----2----2-2------------2-----2---------------------|
D|---0----0-0----0----0-0----0----0-0---------------0------------------------|
A|---------------------------------------------------------------------------|
D|---------------------------------------------------------------------------|
    It shelters like an ark

E--|---------------------------------------------------------------------------|
B--|---------------------------------------------------------------------------|
G--|---------------------------------------------------------------------------|
D--|--------0-----------0---------h------------0----------0--------------------|
A--|----------------------------3-^-5------------------------------------------|
D--|-0----0---0------0----0-0-----------0----0---0------0---0-0----------------|
    that always takes you in

E--|-------5----5-5----5----5-5----5----5----5-5---------0---------------------|
B--|-------3----3-3----3----3-3----3----3----3-3---------3---------------------|
G--|-------2----2-2----2----2-2----2----2----2-2---------2---------------------|
D--|-------0----0-0----0----0-0----0----0----0-0---------0---------------------|
A--|---------------------------------------------------------------------------|
D--|---------------------------------------------------------------------------|
    And    the    mind    goes       numb, till it's feeling no pain

E--|---------------------------------------------------------------------------|
B--|---------------------------------------------------------------------------|
G--|---------------------------------------------------------------------------|
D--|--------0-----------0---------h------------0----------0--------------------|
A--|----------------------------3-^-5------------------------------------------|
D--|-0----0---0------0----0-0-----------0----0---0------0---0-0----------------|
    

E--|-------5----5-5----5----5-5----5----5----5-5---------0---------------------|
B--|-------3----3-3----3----3-3----3----3----3-3---------3---------------------|
G--|-------2----2-2----2----2-2----2----2----2-2---------2---------------------|
D--|-------0----0-0----0----0-0----0----0----0-0---------0---------------------|
A--|---------------------------------------------------------------------------|
D--|---------------------------------------------------------------------------|
    and the soul cries out, for a handful of rain

E--|-2----2-2----2----2-2----2----2----1----1-1----1----1-1----1----1----------|
B--|-3----3-3----3----3-3----3----3----3----3-3----3----3-3----3----3----------|
G--|-2----2-2----2----2-2----2----2----2----2-2----2----2-2----2----2----------|
D--|-0----0-0----0----0-0----0----0----0----0-0----0----0-0----0----0----------|
A--|---------------------------------------------------------------------------|
D--|---------------------------------------------------------------------------|
                                       Ooooohhh  oohohhh

                                              (heavy distortion)
E--|-2----2-2----2----2-2----2-------------------------------------------------|
B--|-3----3-3----3----3-3----3-------------------------------------------------|
G--|-2----2-2----2----2-2----2-----------------3-3-3-3---3-3-3-3---------------|
D--|-0----0-0----0----0-0----0-----------------3-3-3-3---3-3-3-3---------------|
A--|-------------------------------------------1-1-1-1---1-1-1-1---------------|
D--|---------------------------------------------------------------------------|
    woooooooowoooo

E--|-----------------------------------------------------------|
B--|-----------------------------------------------------------|
G--|-----------------------------------------------------------|
D--|-0----0--------------------------0-----0------s------------|
A--|-0----0-------h---h---h---h------0-----0----5--7--5-------|
D--|-0----0-----0-^-5-^-0-^-3-^-0----0-----0----5--7--5-------|
 Wash your women in.....                           ...past   

E--|-----------------------------------------------------------|
B--|-----------------------------------------------------------|
G--|-----------------------------------------------------------|
D--|-0----0--------------------------0-----0------s------------|
A--|-0----0-------h---h---h---h------0-----0----5--7--5-------|
D--|-0----0-----0-^-5-^-0-^-3-^-0----0-----0----5--7--5-------|
 And your starting up....                          ...a glass

           p.m--------------|
E--|---------------------------------------------------------------------|
B--|---------------------------------------------------------------------|
G--|-3----3---3-3-3-3-3-3-3-3-------3----3-------------------------------|
D--|-3----3---3-3-3-3-3-3-3-3-------3----3------s-------h---p---p-0------|
A--|-1----1---1-1-1-1-1-1-1-1-------1----1----5--7---3-^-5-^-3-^-0------|
D--|------------------------------------------5--7---3-^-5-^-3-^-0------|
  And you need some insulation...                    ...lost                

E--|-----------------------------------------------------------|
B--|-----------------------------------------------------------|
G--|-----------------------------------------------------------|
D--|-0----0--------------------------0-----0------s------------|
A--|-0----0-------h---h---h---h------0-----0----5--7--5-------|
D--|-0----0-----0-^-5-^-0-^-3-^-0----0-----0----5--7--5-------|
  And you feel the...                               ...cost

    p.m======================|        p.m.========|
E--|-----------------------------------------------------------------|
B--|-----------------------------------------------------------------|
G--|-----------------------------------------------------------------|
D--|-----------------------------------------------------------------|
A--|---3--3--3--3--3--3--3--3---2------2-2-2-2---2-------------------|
D--|---3--3--3--3--3--3--3--3---2------2-2-2-2---2-------------------|
        And the night rolls  on    like a slow moving

E--|-----------------------------------------------------------|
B--|-----------------------------------------------------------|
G--|-----------------------------------------------------------|
D--|-0----0--------------------------0-----0------s------------|
A--|-0----0-------h---h---h---h------0-----0----5--7--5-------|
D--|-0----0-----0-^-5-^-0-^-3-^-0----0-----0----5--7--5-------|
     train  yeah hea

E--|---------------------------------------------------|
B--|---------------------------------------------------|
G--|---------------------------------------------------|
D--|---------------------------------------------------|
A--|--3--3--3--3--3--3--3--3------2--------------------|
D--|--3--3--3--3--3--3--3--3------2--------------------|
     And    the   soul   cries   out

E--|-----------------------------------------------------------|
B--|-----------------------------------------------------------|
G--|-----------------------------------------------------------|
D--|-0----0--------------------------0-----0------s------------|
A--|-0----0-------h---h---h---h------0-----0----5--7--5-------|
D--|-0----0-----0-^-5-^-0-^-3-^-0----0-----0----5--7--5-------|


E--|-----------------------------------------------------------|
B--|-----------------------------------------------------------|
G--|-----------------------------------------------------------|
D--|-0----0--------------------------0-----0------s------------|
A--|-0----0-------h---h---h---h------0-----0----5--7--5-------|
D--|-0----0-----0-^-5-^-0-^-3-^-0----0-----0----5--7--5-------|
 There's a land beyond..                           ...dead  

E--|-----------------------------------------------------------|
B--|-----------------------------------------------------------|
G--|-----------------------------------------------------------|
D--|-0----0--------------------------0-----0------s------------|
A--|-0----0-------h---h---h---h------0-----0----5--7--5-------|
D--|-0----0-----0-^-5-^-0-^-3-^-0----0-----0----5--7--5-------|
 If it's true that...                               ...led

           p.m--------------|
E--|---------------------------------------------------------------------|
B--|---------------------------------------------------------------------|
G--|-3----3---3-3-3-3-3-3-3-3-------3----3-------------------------------|
D--|-3----3---3-3-3-3-3-3-3-3-------3----3------s-------h---p---p-0------|
A--|-1----1---1-1-1-1-1-1-1-1-------1----1----5--7---3-^-5-^-3-^-0------|
D--|------------------------------------------5--7---3-^-5-^-3-^-0------|
  In the distance there's...                   ...warm


E--|-----------------------------------------------------------|
B--|-----------------------------------------------------------|
G--|-----------------------------------------------------------|
D--|-0----0--------------------------0-----0------s------------|
A--|-0----0-------h---h---h---h------0-----0----5--7--5-------|
D--|-0----0-----0-^-5-^-0-^-3-^-0----0-----0----5--7--5-------|
   And the patrons watch...                       ...storm 

    p.m======================|     
E--|--------------------------------------------------------------|
B--|--------------------------------------------------------------|
G--|--------------------------------------------------------------|
D--|--------------------------------------------------------------|
A--|---3--3--3--3--3--3--3--3---2------2-2-2-2---2----------------|
D--|---3--3--3--3--3--3--3--3---2------2-2-2-2---2----------------|
        And the night rolls  on    like a slow moving

E--|-----------------------------------------------------------|
B--|-----------------------------------------------------------|
G--|-----------------------------------------------------------|
D--|-0----0--------------------------0-----0------s------------|
A--|-0----0-------h---h---h---h------0-----0----5--7--5-------|
D--|-0----0-----0-^-5-^-0-^-3-^-0----0-----0----5--7--5-------|
     train  yeah hea

E--|-----------------------------------------------|
B--|-----------------------------------------------|
G--|-----------------------------------------------|
D--|-----------------------------------------------|
A--|--3--3--3--3--3--3--3--3------2----------------|
D--|--3--3--3--3--3--3--3--3------2----------------|
     And    the   soul   cries   out

E--|--------1----0----1----0----1-0----1----0----1----0----1-0-----------------|
B--|--------3----3----3----3----3-3----3----3----3----3----3-3-----------------|
G--|o-------2----2----2----2----2-2----2----2----2----2----2-2----------------o|
D--|o-------0----0----0----0----0-0----0----0----0----0----0-0----------------o|
A--|---------------------------------------------------------------------------|
D--|---------------------------------------------------------------------------|

E--|-------0-------------------------------0-----------------------------------|
B--|---------3-----1-----0---1---0---1-------3------1----0---1---0---1---------|
G--|-----------2-----2-----2---2---2---2--------2-----2----2---2---2-----------|
D--|-----0-------0-----0------------------0-------0-----0----------------------|
A--|---------------------------------------------------------------------------|
D--|---------------------------------------------------------------------------|

E--|-------0-------------------------------0-----------------------------------|
B--|---------3-----1-----0---1---0---1-------3------1----0---1---0---1---------|
G--|-----------2-----2-----2---2---2---2--------2-----2----2---2---2-----------|
D--|-----0-------0-----0------------------0-------0-----0----------------------|
A--|---------------------------------------------------------------------------|
D--|---------------------------------------------------------------------------|

E--|-------0-------------------------------0-----------------------------------|
B--|---------3-----1-----0---1---0---1-------3------1----0---1---0---1---------|
G--|-----------2-----2-----2---2---2---2--------2-----2----2---2---2-----------|
D--|-----0-------0-----0------------------0-------0-----0----------------------|
A--|---------------------------------------------------------------------------|
D--|---------------------------------------------------------------------------|
    there's an old man in the corner and he's smoking all the time

E--|-------0-------------------------------0-----------------------------------|
B--|---------3-----1-----0---1---0---1-------3------1----0---1---0---1---------|
G--|-----------2-----2-----2---2---2---2--------2-----2----2---2---2-----------|
D--|-----0-------0-----0------------------0-------0-----0----------------------|
A--|---------------------------------------------------------------------------|
D--|---------------------------------------------------------------------------|
   And the smoke is driftin' upward and it's twisted in my, twisted in my

E--|---------------------------------------------------------------------------|
B--|---------------------------------------------------------------------------|
G--|---------------------------------------------------------------------------|
D--|---------------------------------------------------------------------------|
A--|--------7----------5-----------7----------5--------------------------------|
D--|--------7----------5-----------7----------5--------------------------------|
            My Mind

E--|-------0-------------------------------0-----------------------------------|
B--|---------3-----1-----0---1---0---1-------3------1----0---1---0---1---------|
G--|-----------2-----2-----2---2---2---2--------2-----2----2---2---2-----------|
D--|-----0-------0-----0------------------0-------0-----0----------------------|
A--|---------------------------------------------------------------------------|
D--|---------------------------------------------------------------------------|
    Whiskey's getting deeper and I use it like a moat

E--|-------0-------------------------------0-----------------------------------|
B--|---------3-----1-----0---1---0---1-------3------1----0---1---0---1---------|
G--|-----------2-----2-----2---2---2---2--------2-----2----2---2---2-----------|
D--|-----0-------0-----0------------------0-------0-----0----------------------|
A--|---------------------------------------------------------------------------|
D--|---------------------------------------------------------------------------|
There's a blues man in the distance and he's lost inside his, lost inside his

E--|---------------------------------------------------------------------------|
B--|---------------------------------------------------------------------------|
G--|---------------------------------------------------------------------------|
D--|---------------------------------------------------------------------------|
A--|--7-------5--------7--------5------7-5-7-5-7-5-7-5-7-5-7--5--7--5--7--5--7-|
D--|--7-------5--------7--------5------7-5-7-5-7-5-7-5-7-5-7--5--7--5--7--5--7-|
    Note              His note            His Note

E--|---------------------------------------------------------------------------|
B--|---------------------------------------------------------------------------|
G--|o-------------------------------------------------------------------------o|
D--|o-------0-----------0---------h------------0----------0----------h--------o|
A--|----------------------------3-^-5------------------------------3-^-5-------|
D--|-0----0---0------0----0-0-----------0----0---0------0---0-0----------------|

E--|---------------------------------------------------------------------------|
B--|---------------------------------------------------------------------------|
G--|---------------------------------------------------------------------------|
D--|--------0-----------0---------h------------0----------0----------h---------|
A--|----------------------------3-^-5------------------------------3-^-5-------|
D--|-0----0---0------0----0-0-----------0----0---0------0---0-0----------------|
    The night is growing dark

E--|---------------------------------------------------------------------------|
B--|---------------------------------------------------------------------------|
G--|---------------------------------------------------------------------------|
D--|--------0-----------0---------h------------0----------0--------------------|
A--|----------------------------3-^-5------------------------------------------|
D--|-0----0---0------0----0-0-----------0----0---0------0---0-0----------------|
    From somewhere deep within'

E--|---0----0-0----0----0-0----0----0-0------0--------------0------------------|
B--|---3----3-3----3----3-3----3----3-3---------3------------------------------|
G--|---2----2-2----2----2-2----2----2-2------------2-----2---------------------|
D--|---0----0-0----0----0-0----0----0-0---------------0------------------------|
A--|---------------------------------------------------------------------------|
D--|---------------------------------------------------------------------------|
    It shelters like an ark

E--|---------------------------------------------------------------------------|
B--|---------------------------------------------------------------------------|
G--|---------------------------------------------------------------------------|
D--|--------0-----------0---------h------------0----------0--------------------|
A--|----------------------------3-^-5------------------------------------------|
D--|-0----0---0------0----0-0-----------0----0---0------0---0-0----------------|
    that always takes you in

E--|-------5----5-5----5----5-5----5----5----5-5---------0---------------------|
B--|-------3----3-3----3----3-3----3----3----3-3---------3---------------------|
G--|-------2----2-2----2----2-2----2----2----2-2---------2---------------------|
D--|-------0----0-0----0----0-0----0----0----0-0---------0---------------------|
A--|---------------------------------------------------------------------------|
D--|---------------------------------------------------------------------------|
    And    the    night rolls on , like a slow moving train

E--|---------------------------------------------------------------------------|
B--|---------------------------------------------------------------------------|
G--|---------------------------------------------------------------------------|
D--|--------0-----------0---------h------------0----------0--------------------|
A--|----------------------------3-^-5------------------------------------------|
D--|-0----0---0------0----0-0-----------0----0---0------0---0-0----------------|

E--|-------5----5-5----5----5-5----5----5----5-5---------0---------------------|
B--|-------3----3-3----3----3-3----3----3----3-3---------3---------------------|
G--|-------2----2-2----2----2-2----2----2----2-2---------2---------------------|
D--|-------0----0-0----0----0-0----0----0----0-0---------0---------------------|
A--|---------------------------------------------------------------------------|
D--|------------------------------------------------------------------0--------|
    and the soul cries out, for a handful of rain

please rate it
mail to paparaco123@hotmail.com
comments
We did not receive enough feedback on this tab! Please rate:
1 2 3 4 5
I want to post or [tab]
guest
You may want to rate the tab now too:
select rating
Please do not post tabs as comments. Select "correction" instead!