Oops, an error
Loading. Please wait.

Anywhere With You Tab

ver3
ver3

Whole song

Interactive

More versions @911Tabs.com
276 views 1 this week
no commentswrite comment
1 2 3 4 5
please rate
Autoscroll
+/-
esc
set tempo
stop
Difficulty
Tuning
intermediate
D# G# C# F# A# D#
WARNING: You are trying to view
                                    content from Ultimate-Guitar.com
                                    in an unauthorized application,
                                    which is prohibited.

                                    Please use an official Ultimate
                                    Guitar Tabs application for iPhone,
                                    iPad or Android to access legitimate
                                    chords, guitar, bass, and drum tabs
                                    from Ultimate-Guitar.com database.

                                    Type "ultimate guitar tabs" in Apple
                                    App Store's or Android Market's
                                    search to find the application.
Anywhere with You

1:
eb|---------------------------------|---------------------------------|
Bb|---------------------------------|---------------------------------|
F#|---------------------------------|---------------------------------|
Db|---------------------------------|---------------------------------|
Ab|-11--11--11--9---6---6---6---8---|-9---9---9---9---8---8---8---8---|
Eb|-0---0---0---0---4---4---4---6---|-7---7---7---7---9---9---9---9---|

eb|---------------------------------|---------------------x---x---x---|
Bb|---------------------------------|---------------------0---0---0---|
F#|---------------------------------|---------------------4---4---4---|
Db|---------------------------------|-----------------3---3---3---3---|
Ab|-11--11--11--9---6---6---6---8---|-9---9---9---9---4---4---4---4---|
Eb|-0---0---0---0---4---4---4---6---|-7---7---7---7-------------------|

eb|---------------------------------|---------------------x---x---x---|
Bb|---------------------------------|---------------------0---0---0---|
F#|---------------------------------|---------------------4---4---4---|
Db|-2---2---2---4---6---6---6---3---|-4---4---4---4---3---3---3---3---|
Ab|-2---2---2---4---6---6---6---1---|-2---2---2---2---4---4---4---4---|
Eb|-0---0---0---2---4---4---4-------|---------------------------------|


eb|---------------------------------|---------------------x---x---x---|
Bb|---------------------------------|---------------------0---0---0---|
F#|---------------------------------|---------------------4---4---4---|
Db|-2---2---2---4---6---6---6---3---|-4---4---4---4---3---3---3---3---|
Ab|-2---2---2---4---6---6---6---1---|-2---2---2---2---4---4---4---4---|
Eb|-0---0---0---2---4---4---4-------|---------------------------------|

* * * * * * * * * * * * * * * *
eb|---------------------------------|---------------------------------|
Bb|-4-----------------------4-------|-2-------------------------------|
F#|-4-----------------------4-------|-3-------------------------------|
Db|-2-----------------------2-------|-2-------------------------------|
Ab|-2-----------------------2-------|-x-------------------------------|
Eb|-0-----------------------0-------|-2-------------------------------|

* * * * * * * * * * * * * * * *
eb|-9-----9---------7-----7---------|-9-----9---------7-----7---------|
Bb|-8-----8---------7-----7---------|-11----11--------9-----9---------|
F#|-9-----9-#-------8-----8-#-------|-9-----9-#-------8-----8-#-------|
Db|---------#---------------#-------|---------#---------------#-------|
Ab|---------------------------------|---------------------------------|
Eb|---------------------------------|---------------------------------|

eb|-9-----9---------7-----7---------|-9-----9---------7-----7---------|
Bb|-8-----8---------7-----7---------|-11----11--------9-----9---------|
F#|-9-----9-#-------8-----8-#-------|-9-----9-#-------8-----8-#-------|
Db|---------#---------------#-------|---------#---------------#-------|
Ab|---------------------------------|---------------------------------|
Eb|---------------------------------|---------------------------------|

* * * * * * * * * * * * * * * *
eb|-9-----9---------7-----7---------|-6-----6---------4-----4---------|
Bb|-9-----9---------7-----7---------|-5-----5---------4-----4---------|
F#|-9-----9-#-------8-----8-#-------|-6-----6-#-------4-----4-#-------|
Db|---------#---------------#-------|---------#---------------#-------|
Ab|---------------------------------|---------------------------------|
Eb|---------------------------------|---------------------------------|

eb|---------------------------------|---------------------------------|
Bb|-4-----------------------4-------|-0---0---0---0---0---0---0---0---|
F#|-4-----------------------4-------|-4---4---4---4---4---4---4---4---|
Db|-4-----------------------4-------|-3---3---3---3---3---3---3---3---|
Ab|-x-----------------------x-------|-4---4---4---4---4---4---4---4---|
Eb|-4-----------------------4-------|---------------------------------|

eb|---------------------------------|---------------------x---x---x---|
Bb|---------------------------------|---------------------0---0---0---|
F#|---------------------------------|---------------------4---4---4---|
Db|-2---2---2---4---6---6---6---3---|-4---4---4---4---3---3---3---3---|
Ab|-2---2---2---4---6---6---6---1---|-2---2---2---2---4---4---4---4---|
Eb|-0---0---0---2---4---4---4-------|---------------------------------|

eb|---------------------------------|---------------------x---x---x---|
Bb|---------------------------------|---------------------0---0---0---|
F#|---------------------------------|---------------------4---4---4---|
Db|-2---2---2---4---6---6---6---3---|-4---4---4---4---3---3---3---3---|
Ab|-2---2---2---4---6---6---6---1---|-2---2---2---2---4---4---4---4---|
Eb|-0---0---0---2---4---4---4-------|---------------------------------|

eb|---------------------------------|---------------------x---x---x---|
Bb|---------------------------------|---------------------0---0---0---|
F#|---------------------------------|---------------------4---4---4---|
Db|-2---2---2---4---6---6---6---3---|-4---4---4---4---3---3---3---3---|
Ab|-2---2---2---4---6---6---6---1---|-2---2---2---2---4---4---4---4---|
Eb|-0---0---0---2---4---4---4-------|---------------------------------|

eb|---------------------------------|---------------------------------|
Bb|-4-------4-------4-------4-------|-2-------2-------2-------2-------|
F#|-4-------4-------4-------4-------|-3-------3-------3-------3-------|
Db|-2-------2-------2-------2-------|-2-------2-------2-------2-------|
Ab|-2-------2-------2-------2-------|-x-------x-------x-------x-------|
Eb|-0-------0-------0-------0-------|-2-------2-------2-------2-------|

eb|-9-----9---------7-----7---------|-9-----9---------7-----7---------|
Bb|-8-----8---------7-----7---------|-11----11--------9-----9---------|
F#|-9-----9-#-------8-----8-#-------|-9-----9-#-------8-----8-#-------|
Db|---------#---------------#-------|---------#---------------#-------|
Ab|---------------------------------|---------------------------------|
Eb|---------------------------------|---------------------------------|

eb|-9-----9---------7-----7---------|-9-----9---------7-----7---------|
Bb|-8-----8---------7-----7---------|-11----11--------9-----9---------|
F#|-9-----9-#-------8-----8-#-------|-9-----9-#-------8-----8-#-------|
Db|---------#---------------#-------|---------#---------------#-------|
Ab|---------------------------------|---------------------------------|
Eb|---------------------------------|---------------------------------|

eb|-9-----9---------7-----7---------|-6-----6---------4-----4---------|
Bb|-9-----9---------7-----7---------|-5-----5---------4-----4---------|
F#|-9-----9-#-------8-----8-#-------|-6-----6-#-------4-----4-#-------|
Db|---------#---------------#-------|---------#---------------#-------|
Ab|---------------------------------|---------------------------------|
Eb|---------------------------------|---------------------------------|

eb|---------------------------------|---------------------------------|
Bb|-4-----------------------4-------|-0---0---0---0---0---0---0---0---|
F#|-4-----------------------4-------|-4---4---4---4---4---4---4---4---|
Db|-4-----------------------4-------|-3---3---3---3---3---3---3---3---|
Ab|-x-----------------------x-------|-4---4---4---4---4---4---4---4---|
Eb|-4-----------------------4-------|---------------------------------|

eb|---------------------------------|---------------------x---x---x---|
Bb|---------------------------------|---------------------0---0---0---|
F#|---------------------------------|---------------------4---4---4---|
Db|-2---2---2---4---6---6---6---3---|-4---4---4---4---3---3---3---3---|
Ab|-2---2---2---4---6---6---6---1---|-2---2---2---2---4---4---4---4---|
Eb|-0---0---0---2---4---4---4-------|---------------------------------|

eb|---------------------------------|---------------------x---x---x---|
Bb|---------------------------------|---------------------0---0---0---|
F#|---------------------------------|---------------------4---4---4---|
Db|-2---2---2---4---6---6---6---3---|-4---4---4---4---3---3---3---3---|
Ab|-2---2---2---4---6---6---6---1---|-2---2---2---2---4---4---4---4---|
Eb|-0---0---0---2---4---4---4-------|---------------------------------|

eb|---------------------------------|---------------------x---x---x---|
Bb|---------------------------------|---------------------0---0---0---|
F#|---------------------------------|---------------------4---4---4---|
Db|-2---2---2---4---6---6---6---3---|-4---4---4---4---3---3---3---3---|
Ab|-2---2---2---4---6---6---6---1---|-2---2---2---2---4---4---4---4---|
Eb|-0---0---0---2---4---4---4-------|---------------------------------|

eb|---------------------------------|---------------------------------|
Bb|-4-------4-------4-------4-------|-2-----------------------2-------|
F#|-4-------4-------4-------4-------|-3-----------------------3-------|
Db|-2-------2-------2-------2-------|-2-----------------------2-------|
Ab|-2-------2-------2---2---2-------|-x-----------------------x-------|
Eb|-0-------0-------0---0---0---0---|-2-----------------------2-------|

eb|-9---------------7---------------|-9---------------7---------------|
Bb|-----8---------------7-----------|-----11--------------9-----------|
F#|-------9-#-------------8-#-------|-------9-#-------------8-#-------|
Db|---------#---------------#-------|---------#---------------#-------|
Ab|---------------------------------|---------------------------------|
Eb|---------------------------------|---------------------------------|

eb|-9---------------7---------------|-9---------------7---------------|
Bb|-----8---------------7-----------|-----11--------------9-----------|
F#|-------9-#-------------8-#-------|-------9-#-------------8-#-------|
Db|---------#---------------#-------|---------#---------------#-------|
Ab|---------------------------------|---------------------------------|
Eb|---------------------------------|---------------------------------|

eb|-9---------------7---------------|-9---------------7---------------|
Bb|-----8---------------7-----------|-----11--------------9-----------|
F#|-------9-#-------------8-#-------|-------9-#-------------8-#-------|
Db|---------#---------------#-------|---------#---------------#-------|
Ab|---------------------------------|---------------------------------|
Eb|---------------------------------|---------------------------------|

eb|-9---------------7---------------|-9---------------7---------------|
Bb|-----8---------------7-----------|-----11--------------9-----------|
F#|-------9-#-------------8-#-------|-------9-#-------------8-#-------|
Db|---------#---------------#-------|---------#---------------#-------|
Ab|---------------------------------|---------------------------------|
Eb|---------------------------------|---------------------------------|

eb|-9---------------7---------------|-6---------------4---------------|
Bb|-----9---------------7-----------|-----5---------------4-----------|
F#|-------9-#-------------8-#-------|-------6-#-------------4-#-------|
Db|---------#---------------#-------|---------#---------------#-------|
Ab|---------------------------------|---------------------------------|
Eb|---------------------------------|---------------------------------|

eb|---------------------------------|---------------------------------|
Bb|-4-----------------------4-------|-0-----------------------0-------|
F#|-4-----------------------4-------|-4-----------------------4-------|
Db|-4-----------------------4-------|-3-----------------------3-------|
Ab|-x-----------------------x-------|-4-----------------------4-------|
Eb|-4-----------------------4-------|---------------------------------|

eb|---------------------------------|---------------------------------|
Bb|-4-----------------------4-------|-0---0---0---0---0---0---0---0---|
F#|-4-----------------------4-------|-4---4---4---4---4---4---4---4---|
Db|-4-----------------------4-------|-3---3---3---3---3---3---3---3---|
Ab|-x-----------------------x-------|-4---4---4---4---4---4---4---4---|
Eb|-4-----------------------4-------|---------------------------------|

eb|---------------------------------|---------------------x---x---x---|
Bb|---------------------------------|---------------------0---0---0---|
F#|---------------------------------|---------------------4---4---4---|
Db|-2---2---2---4---6---6---6---3---|-4---4---4---4---3---3---3---3---|
Ab|-2---2---2---4---6---6---6---1---|-2---2---2---2---4---4---4---4---|
Eb|-0---0---0---2---4---4---4-------|---------------------------------|

eb|---------------------------------|---------------------x---x---x---|
Bb|---------------------------------|---------------------0---0---0---|
F#|---------------------------------|---------------------4---4---4---|
Db|-2---2---2---4---6---6---6---3---|-4---4---4---4---3---3---3---3---|
Ab|-2---2---2---4---6---6---6---1---|-2---2---2---2---4---4---4---4---|
Eb|-0---0---0---2---4---4---4-------|---------------------------------|

eb|---------------------------------|---------------------x---x---x---|
Bb|---------------------------------|---------------------0---0---0---|
F#|---------------------------------|---------------------4---4---4---|
Db|-2---2---2---4---6---6---6---3---|-4---4---4---4---3---3---3---3---|
Ab|-2---2---2---4---6---6---6---1---|-2---2---2---2---4---4---4---4---|
Eb|-0---0---0---2---4---4---4-------|---------------------------------|

eb|---------------------------------|---------------------------------|
Bb|-4-------4-------4-------4-------|-0-------0-------0---0---0---0---|
F#|-4-------4-------4-------4-------|-4-------4-------4---4---4---4---|
Db|-4---4---4---4---4---4---4---4---|-3---3---3---3---3---3---3---3---|
Ab|-x---x---x---x---x---x---x---x---|-4---4---4---4---4---4---4---4---|
Eb|-4---4---4---4---4---4---4---4---|---------------------------------|

eb|---------------------------------|---------------------x---x---x---|
Bb|---------------------------------|---------------------0---0---0---|
F#|---------------------------------|---------------------4---4---4---|
Db|-2---2---2---4---6---6---6---3---|-4---4---4---4---3---3---3---3---|
Ab|-2---2---2---4---6---6---6---1---|-2---2---2---2---4---4---4---4---|
Eb|-0---0---0---2---4---4---4-------|---------------------------------|

eb|---------------------------------|---------------------x---x---x---|
Bb|---------------------------------|---------------------0---0---0---|
F#|---------------------------------|---------------------4---4---4---|
Db|-2---2---2---4---6---6---6---3---|-4---4---4---4---3---3---3---3---|
Ab|-2---2---2---4---6---6---6---1---|-2---2---2---2---4---4---4---4---|
Eb|-0---0---0---2---4---4---4-------|---------------------------------|

eb|---------------------------------|---------------------x---x---x---|
Bb|---------------------------------|---------------------0---0---0---|
F#|---------------------------------|---------------------4---4---4---|
Db|-2---2---2---4---6---6---6---3---|-4---4---4---4---3---3---3---3---|
Ab|-2---2---2---4---6---6---6---1---|-2---2---2---2---4---4---4---4---|
Eb|-0---0---0---2---4---4---4-------|---------------------------------|

eb|---------------------------------|---------------------------------|
Bb|-0-------0-------0-------0-------|---------------------------------|
F#|-4-------4-------4-------4-------|-3-------3-------3-------3-------|
Db|-2-------2-------2-------2-------|-2-------2-------2-------2-------|
Ab|-2---2---2---2---2---2---2---2---|-4---4---4---4---4---4---4-------|
Eb|-0---0---0---0---0---0---0---0---|-2---2---2---2---2---2---2-------|

Guitar 2:

eb|---------------------------------|---------------------------------|
Bb|---------------------------------|---------------------------------|
F#|---------------------------------|---------------------------------|
Db|---------------------------------|---------------------9---9/------|
Ab|---------------------------------|---------------------8---8/------|
Eb|---------------------------------|---------------------9---9/------|

eb|---------------------------------|---------------------------------|
Bb|---------------------------------|---------------------------------|
F#|---------------------------------|---------------------------------|
Db|-2---2---2---4---6---6---6---8---|-9---9---9---9-------------------|
Ab|-2---2---2---4---6---6---6---8---|-9---9---9---9-------8---8---8---|
Eb|-0---0---0---2---4---4---4---6---|-7---7---7---7---9---------------|

eb|---------------------------------|---------------------------------|
Bb|---------------------------------|---------------------------------|
F#|---------------------------------|---------------------------------|
Db|-2---2---2---4---6---6---6---8---|-9---9---9---9-------------------|
Ab|-2---2---2---4---6---6---6---8---|-9---9---9---9-------8---8---8---|
Eb|-0---0---0---2---4---4---4---6---|-7---7---7---7---9---------------|

eb|---------------------------------|---------------------------------|
Bb|-9-----------------------9-------|-11------------------------------|
F#|-8-----------------------8-------|-9-------------------------------|
Db|-9-----------------------9-------|-11------------------------------|
Ab|-7-----------------------7-------|-9-------------------------------|
Eb|---------------------------------|---------------------------------|

eb|-12----12--------11----11--------|-12----12--------11----11--------|
Bb|-12----12--------12----12--------|-11----11--------12----12--------|
F#|-12----12#-------11----11#-------|-11----11--------13----13#-------|
Db|---------#---------------#-------|-------------------------#-------|
Ab|---------------------------------|---------------------------------|
Eb|---------------------------------|---------------------------------|

eb|-12----12--------11----11--------|-12----12--------11----11--------|
Bb|-12----12--------12----12--------|-11----11--------12----12--------|
F#|-12----12#-------11----11#-------|-11----11--------13----13#-------|
Db|---------#---------------#-------|-------------------------#-------|
Ab|---------------------------------|---------------------------------|
Eb|---------------------------------|---------------------------------|

eb|-12----12--------11----11--------|-9-----9---------7-----7---------|
Bb|-12----12--------12----12--------|-11----11--------9-----9---------|
F#|-13----13#-------11----11#-------|-9-----9-#-------8-----8-#-------|
Db|---------#---------------#-------|---------#---------------#-------|
Ab|---------------------------------|---------------------------------|
Eb|---------------------------------|---------------------------------|

eb|-------------6-------------------|---------------------------------|
Bb|---------------------9-----------|---------9-----------------------|
F#|---------8---------------8-------|-------------8-------13--11--9---|
Db|-9-------------------------------|-----9-----------9---x---x---x---|
Ab|---------------------------------|-8-------------------11--9---7---|
Eb|---------------------------------|---------------------------------|

eb|---------------------------------|---------------------------------|
Bb|---------------------------------|---------------------------------|
F#|---------------------------------|---------------------------------|
Db|-2---2---2---4---6---6---6---8---|-9---9---9---9-------------------|
Ab|-2---2---2---4---6---6---6---8---|-9---9---9---9-------8---8---8---|
Eb|-0---0---0---2---4---4---4---6---|-7---7---7---7---9---------------|

eb|---------------------------------|---------------------------------|
Bb|---------------------------------|---------------------------------|
F#|---------------------------------|---------------------------------|
Db|-2---2---2---4---6---6---6---8---|-9---9---9---9-------------------|
Ab|-2---2---2---4---6---6---6---8---|-9---9---9---9-------8---8---8---|
Eb|-0---0---0---2---4---4---4---6---|-7---7---7---7---9---------------|

eb|---------------------------------|---------------------------------|
Bb|---------------------------------|---------------------------------|
F#|---------------------------------|---------------------------------|
Db|-2---2---2---4---6---6---6---8---|-9---9---9---9-------------------|
Ab|-2---2---2---4---6---6---6---8---|-9---9---9---9-------8---8---8---|
Eb|-0---0---0---2---4---4---4---6---|-7---7---7---7---9---------------|

eb|---------------------------------|---------------------------------|
Bb|-9-------9-------9-------9-------|-11------11------11------11------|
F#|-8-------8-------8-------8-------|-9-------9-------9-------9-------|
Db|-9-------9-------9-------9-------|-11------11------11------11------|
Ab|-7-------7-------7-------7-------|-9-------9-------9-------9-------|
Eb|---------------------------------|---------------------------------|

eb|-12----12--------11----11--------|-12----12--------11----11--------|
Bb|-12----12--------12----12--------|-11----11--------12----12--------|
F#|-12----12#-------11----11#-------|-11----11--------13----13#-------|
Db|---------#---------------#-------|-------------------------#-------|
Ab|---------------------------------|---------------------------------|
Eb|---------------------------------|---------------------------------|

eb|-12----12--------11----11--------|-12----12--------11----11--------|
Bb|-12----12--------12----12--------|-11----11--------12----12--------|
F#|-12----12#-------11----11#-------|-11----11#-------13----13#-------|
Db|---------#---------------#-------|---------#---------------#-------|
Ab|---------------------------------|---------------------------------|
Eb|---------------------------------|---------------------------------|

eb|-12----12--------11----11--------|-9-----9---------7-----7---------|
Bb|-12----12--------12----12--------|-11----11--------9-----9---------|
F#|-13----13#-------11----11#-------|-9-----9-#-------8-----8-#-------|
Db|---------#---------------#-------|---------#---------------#-------|
Ab|---------------------------------|---------------------------------|
Eb|---------------------------------|---------------------------------|

eb|-------------6-------------------|---------------------------------|
Bb|---------------------9-----------|-------------9-------------------|
F#|---------8---------------8-------|---------8-----------13--11--9---|
Db|-9-------------------------------|-----9---------------x---x---x---|
Ab|---------------------------------|-8---------------8---11--9---7---|
Eb|---------------------------------|---------------------------------|

eb|---------------------------------|---------------------------------|
Bb|---------------------------------|---------------------------------|
F#|---------------------------------|---------------------------------|
Db|-2---2---2---4---6---6---6---8---|-9---9---9---9-------------------|
Ab|-2---2---2---4---6---6---6---8---|-9---9---9---9-------8---8---8---|
Eb|-0---0---0---2---4---4---4---6---|-7---7---7---7---9---------------|

eb|---------------------------------|---------------------------------|
Bb|---------------------------------|---------------------------------|
F#|---------------------------------|---------------------------------|
Db|-2---2---2---4---6---6---6---8---|-9---9---9---9-------------------|
Ab|-2---2---2---4---6---6---6---8---|-9---9---9---9-------8---8---8---|
Eb|-0---0---0---2---4---4---4---6---|-7---7---7---7---9---------------|

eb|---------------------------------|---------------------------------|
Bb|---------------------------------|---------------------------------|
F#|---------------------------------|---------------------------------|
Db|-2---2---2---4---6---6---6---8---|-9---9---9---9-------------------|
Ab|-2---2---2---4---6---6---6---8---|-9---9---9---9-------8---8---8---|
Eb|-0---0---0---2---4---4---4---6---|-7---7---7---7---9---------------|

eb|---------------------------------|---------------------------------|
Bb|-9-------9-------9-------9-------|-11----------------------11------|
F#|-8-------8-------8-------8-------|-9-----------------------9-------|
Db|-9-------9-------9---9---9-------|-11----------------------11------|
Ab|-7-------7-------7---7---7---7---|-9-----------------------9-------|
Eb|---------------------------------|---------------------------------|

eb|-12--------------11--------------|-12--------------11--------------|
Bb|-----12--------------12----------|-----11--------------12----------|
F#|-------12#-------------11#-------|-------11#-------------13#-------|
Db|---------#---------------#-------|---------#---------------#-------|
Ab|---------------------------------|---------------------------------|
Eb|---------------------------------|---------------------------------|

eb|-12--------------11--------------|-12--------------11--------------|
Bb|-----12--------------12----------|-----11--------------12----------|
F#|-------12#-------------11#-------|-------11#-------------13#-------|
Db|---------#---------------#-------|---------#---------------#-------|
Ab|---------------------------------|---------------------------------|
Eb|---------------------------------|---------------------------------|

eb|-12--------------11--------------|-12--------------11--------------|
Bb|-----12--------------12----------|-----11--------------12----------|
F#|-------12#-------------11#-------|-------11#-------------13#-------|
Db|---------#---------------#-------|---------#---------------#-------|
Ab|---------------------------------|---------------------------------|
Eb|---------------------------------|---------------------------------|

eb|-12--------------11--------------|-12--------------11--------------|
Bb|-----12--------------12----------|-----11--------------12----------|
F#|-------12#-------------11#-------|-------11#-------------13#-------|
Db|---------#---------------#-------|---------#---------------#-------|
Ab|---------------------------------|---------------------------------|
Eb|---------------------------------|---------------------------------|

eb|-12--------------11--------------|-9---------------7---------------|
Bb|-----12--------------12----------|-----11--------------9-----------|
F#|-------13#-------------11#-------|-------9-#-------------8-#-------|
Db|---------#---------------#-------|---------#---------------#-------|
Ab|---------------------------------|---------------------------------|
Eb|---------------------------------|---------------------------------|

eb|-------------6-------------------|---------------------------------|
Bb|---------------------9-----------|-------------9-------------------|
F#|---------8---------------8-------|---------------------8-----------|
Db|-9-------------------------------|---------9---------------9-------|
Ab|---------------------------------|-8-------------------------------|
Eb|---------------------------------|---------------------------------|

eb|---------------------------------|---------------------------------|
Bb|---------------------9-----------|-9---9---9---9---9---------------|
F#|-------------8-----------8-------|-8---8---8---8---8---13--11--9---|
Db|-9-------9-----------------------|-9---9---9---9---9---x---x---x---|
Ab|---------------------------------|-8---8---8---8---8---11--9---7---|
Eb|---------------------------------|---------------------------------|

eb|---------------------------------|---------------------------------|
Bb|---------------------------------|---------------------------------|
F#|---------------------------------|---------------------------------|
Db|-2---2---2---4---6---6---6---8---|-9---9---9---9-------------------|
Ab|-2---2---2---4---6---6---6---8---|-9---9---9---9-------8---8---8---|
Eb|-0---0---0---2---4---4---4---6---|-7---7---7---7---9---------------|

eb|---------------------------------|---------------------------------|
Bb|---------------------------------|---------------------------------|
F#|---------------------------------|---------------------------------|
Db|-2---2---2---4---6---6---6---8---|-9---9---9---9-------------------|
Ab|-2---2---2---4---6---6---6---8---|-9---9---9---9-------8---8---8---|
Eb|-0---0---0---2---4---4---4---6---|-7---7---7---7---9---------------|

eb|---------------------------------|---------------------------------|
Bb|---------------------------------|---------------------------------|
F#|---------------------------------|---------------------------------|
Db|-2---2---2---4---6---6---6---8---|-9---9---9---9-------------------|
Ab|-2---2---2---4---6---6---6---8---|-9---9---9---9-------8---8---8---|
Eb|-0---0---0---2---4---4---4---6---|-7---7---7---7---9---------------|

eb|-----------------6---------------|---------------------------------|
Bb|---------9-----------9-------9---|---------9-----------------------|
F#|-----8-------8-----------8-------|-------------8---13--13--13--11--|
Db|-9-------------------------------|-----9-----------x---x---x---x---|
Ab|---------------------------------|-8---------------11--11--11--9---|
Eb|---------------------------------|---------------------------------|

eb|---------------------------------|---------------------------------|
Bb|---------------------------------|---------------------------------|
F#|---------------------------------|---------------------------------|
Db|---------------------------------|---------------------------------|
Ab|-7---7---7---7---6---6---6---6---|-9---9---9---9---8---8---8---8---|
Eb|---------------------------------|---------------------------------|

eb|---------------------------------|---------------------------------|
Bb|---------------------------------|---------------------------------|
F#|---------------------------------|---------------------------------|
Db|---------------------------------|---------------------------------|
Ab|-7---7---7---7---6---6---6---6---|-9---9---9---9---8---8---8---8---|
Eb|---------------------------------|---------------------------------|

eb|---------------------------------|---------------------------------|
Bb|---------------------------------|---------------------------------|
F#|---------------------------------|---------------------------------|
Db|---------------------------------|---------------------------------|
Ab|-7---7---7---7---6---6---6---6---|-9---9---9---9---8---8---8---8---|
Eb|---------------------------------|---------------------------------|

eb|---------------------------------|---------------------------------|
Bb|-9-------9-------9-------9-------|-11------11------11------11------|
F#|-8-------8-------8-------8-------|-9-------9-------9-------9-------|
Db|-9---9---9---9---9---9---9---9---|-11--11--11--11--11--11--11------|
Ab|-7---7---7---7---7---7---7---7---|-9---9---9---9---9---9---9-------|
Eb|---------------------------------|---------------------------------|

comments
We did not receive enough feedback on this tab! Please rate:
print report bad tab
1 2 3 4 5
I want to post or [tab]
guest
You may want to rate the tab now too:
select rating
Please do not post tabs as comments. Select "correction" instead!