Oops, an error
Loading. Please wait.

As Your Ghost Takes Flight Tab

ver2
ver2

Whole song

More versions @911Tabs.com
93 views 1 this week
no commentswrite comment
1 2 3 4 5
please rate
Autoscroll
+/-
esc
set tempo
stop
Difficulty
intermediate
WARNING: You are trying to view
                                    content from Ultimate-Guitar.com
                                    in an unauthorized application,
                                    which is prohibited.

                                    Please use an official Ultimate
                                    Guitar Tabs application for iPhone,
                                    iPad or Android to access legitimate
                                    chords, guitar, bass, and drum tabs
                                    from Ultimate-Guitar.com database.

                                    Type "ultimate guitar tabs" in Apple
                                    App Store's or Android Market's
                                    search to find the application.
Saves The Day 

Guitar 1:
e|-----------------|-----------------|-----------------|-----------------|
B|-----------------|-----------------|-----------------|-----------------|
G|-----------------|---8---4---11----|-----------------|---8---9---8-----|
D|-6---6-----------|---x---x---x-----|-2---2-----------|---x---x---x-----|
A|-6---6-----------|---6---2---9---2-|-2---2-----------|---6---7---6---4-|
E|-4---4-----------|---------------0-|-0---0-----------|---------------2-|

e|-----------------|-----------------|-----------------|-----------------|
B|-----------------|-----------------|-----------------|-----------------|
G|-----------------|---8---6---3-----|-----------------|---8---13--11----|
D|-4---4-----------|---x---x---x-----|-2---2-----------|---x---x---x-----|
A|-4---4-----------|---6---4---1---2-|-2---2-----------|---6---11--9---6-|
E|-2---2-----------|---------------0-|-0---0-----------|---------------4-|

e|-----------------|-----------------|-----------------|-----------------|
B|-----------------|-----------------|-----------------|-----------------|
G|-----------x-x---|---8---4---11----|-----------x-x---|---8---9---8-----|
D|-6---6-----x-x---|---x---x---x-----|-2---2-----x-x---|---x---x---x-----|
A|-6---6-----x-x---|---6---2---9---2-|-2---2-----x-x---|---6---7---6---4-|
E|-4---4-----x-x---|---------------0-|-0---0-----x-x---|---------------2-|

e|-----------------|-----------------|-----------------|-----------------|
B|-----------------|-----------------|-----------------|-----------------|
G|-----------x-x---|---8---6---3-----|---------6-6-6-6-|-8-8-8-9-9-9-9-9-|
D|-4---4-----x-x---|---x---x---x-----|-2-2-2-2-x-x-x-x-|-x-x-x-x-x-x-x-x-|
A|-4---4-----x-x---|---6---4---1---2-|-2-2-2-2-4-4-4-4-|-6-6-6-7-7-7-7-7-|
E|-2---2-----x-x---|---------------0-|-0-0-0-0-0-0-0-0-|-0-0-0-0-0-0-0-0-|

e|-----------------|-----------------|-----------------|-----------------|
B|-----------------|-----------------|-----------------|-----------------|
G|-----------------|-4-4-4-4-4-4-4-4-|-----------------|-4-4-4-4-4-4-4-4-|
D|-6-6-6-6---2-2-2-|-4-4-4-4-4-4-4-4-|-6-6-6-6---2-2-2-|-4-4-4-4-4-4-4-4-|
A|-6-6-6-6---2-2-2-|-2-2-2-2-2-2-2-2-|-6-6-6-6---2-2-2-|-2-2-2-2-2-2-2-2-|
E|-4-4-4-4---0-0-0-|-----------------|-4-4-4-4---0-0-0-|-----------------|

e|-----------------|-----------------|-----------------|-----------------|
B|-----------------|-----------------|-----------------|-----------------|
G|-----------------|-4-4-4-4-4-4-4-4-|-----------------|-4-4-4-4-4-4-4-4-|
D|-6-6-6-6---2-2-2-|-4-4-4-4-4-4-4-4-|-6-6-6-6---2-2-2-|-4-4-4-4-4-4-4-4-|
A|-6-6-6-6---2-2-2-|-2-2-2-2-2-2-2-2-|-6-6-6-6---2-2-2-|-2-2-2-2-2-2-2-2-|
E|-4-4-4-4---0-0-0-|-----------------|-4-4-4-4---0-0-0-|-----------------|

e|-----------------|-----------------|-----------------|-----------------|
B|-----------------|-----------------|-----------------|-----------------|
G|-----------------|---8---4---11----|-----------------|---8---9---8-----|
D|-6---6-----6-6---|---x---x---x-----|-2---2-----2-2---|---x---x---x-----|
A|-6---6-----6-6---|---6---2---9---2-|-2---2-----2-2---|---6---7---6---4-|
E|-4---4-----4-4---|---------------0-|-0---0-----0-0---|---------------2-|

e|-----------------|-----------------|-----------------|-----------------|
B|-----------------|-----------------|-----------------|-----------------|
G|-----------------|---8---6---3-----|-----------------|---8---13--11----|
D|-4---4-----4-4---|---x---x---x-----|-2---2-----2-2---|---x---x---x-----|
A|-4---4-----4-4---|---6---4---1---2-|-2---2-----2-2---|---6---11--9---6-|
E|-2---2-----2-2---|---------------0-|-0---0-----0-0---|---------------4-|

e|-----------------|-----------------|-----------------|-----------------|
B|-----------------|-----------------|-----------------|-----------------|
G|-----------------|---8---4---11----|-----------------|---8---9---8-----|
D|-6---6-----6-6-6-|---x---x---x-----|-2---2-----2-2-2-|---x---x---x-----|
A|-6---6-----6-6-6-|---6---2---9---2-|-2---2-----2-2-2-|---6---7---6---4-|
E|-4---4-----4-4-4-|---------------0-|-0---0-----0-0-0-|---------------2-|

e|-----------------|-----------------|-----------------|-----------------|
B|-----------------|-----------------|-----------------|-----------------|
G|-----------------|---8---6---3-----|---------6-6-6-6-|-8-8-8-8-9-9-9-9-|
D|-4---4-----4-4-4-|---x---x---x-----|-2-2-2-2-x-x-x-x-|-x-x-x-x-x-x-x-x-|
A|-4---4-----4-4-4-|---6---4---1---2-|-2-2-2-2-4-4-4-4-|-6-6-6-6-7-7-7-7-|
E|-2---2-----2-2-2-|---------------0-|-0-0-0-0-0-0-0-0-|-0-0-0-0-0-0-0-0-|

e|-----------------|-----------------|-----------------|-----------------|
B|-----------------|-----------------|-----------------|-----------------|
G|-----------------|-4-4-4-4-4-4-4-4-|-----------------|-4-4-4-4-4-4-4-4-|
D|-6-6-6-6---2-2-2-|-4-4-4-4-4-4-4-4-|-6-6-6-6---2-2-2-|-4-4-4-4-4-4-4-4-|
A|-6-6-6-6---2-2-2-|-2-2-2-2-2-2-2-2-|-6-6-6-6---2-2-2-|-2-2-2-2-2-2-2-2-|
E|-4-4-4-4---0-0-0-|-----------------|-4-4-4-4---0-0-0-|-----------------|

e|-----------------|-----------------|-----------------|-----------------|
B|-----------------|-----------------|-----------------|-----------------|
G|-----------------|-4-4-4-4-4-4-4-4-|-----------------|-----------------|
D|-6-6-6-6---2-2-2-|-4-4-4-4-4-4-4-4-|-6-6-6-6---2-2-2-|-4-.-.-.-.-.-.-.-|
A|-6-6-6-6---2-2-2-|-2-2-2-2-2-2-2-2-|-6-6-6-6---2-2-2-|-4-4-4-4-4-4-4-4-|
E|-4-4-4-4---0-0-0-|-----------------|-4-4-4-4---0-0-0-|-2-2-2-2-2-2-2-2-|

e|-----------------|
B|-----------------|
G|-----------------|
D|-.-.-.-.-.-.-.-.-|
A|-4-4-4-4-4-4-4-4-|
E|-2-2-2-2-2-2-2-2-|

e|-----------------|-----------------|-----------------|-----------------|
B|-----------------|-----------------|-----------------|-----------------|
G|-----------------|-----------------|-----------------|-----------------|
D|-6---6-----------|-----------------|-2---2-----------|-----------------|
A|-6---6-----------|-----------------|-2---2-----------|-----------------|
E|-4---4-----------|-----------------|-0---0-----------|-----------------|

e|-----------------|-----------------|-----------------|-----------------|
B|-----------------|-----------------|-----------------|-----------------|
G|-----------------|-----------------|-----------------|-----------------|
D|-6---6-----------|-----------------|-2---2-----------|-----------------|
A|-6---6-----------|-----------------|-2---2-----------|-----------------|
E|-4---4-----------|-----------------|-0---0-----------|-----------------|

e|-----------------|-----------------|-----------------|-----------------|
B|-----------------|-----------------|-----------------|-----------------|
G|-----------------|-----------------|-----------------|-----------------|
D|-6---6-----------|-----------------|-4---4-----------|-----------------|
A|-6---6-----------|-----------------|-4---4-----------|-----------------|
E|-4---4-----------|-----------------|-2---2-----------|-----------------|

e|-----------------|-----------------|-----------------|-----------------|
B|-----------------|-----------------|-----------------|-----------------|
G|-----------------|-----------------|-----------------|-----------------|
D|-2---2-----------|-----------------|-----------------|-----------4-4---|
A|-2---2-----------|-----------------|-----------------|-----------4-4---|
E|-0---0-----------|-----------------|-----------------|-----------2-2---|

e|-----------------|-----------------|-----------------|-----------------|
B|-----------------|-----------------|-----------------|-----------------|
G|-----------------|-----------------|-----------------|-----------------|
D|-6-6-6-6-6-6-6-6-|-6-6-6-6-6-6-6-6-|-2-2-2-2-2-2-2-2-|-2-2-2-2-2-2-2-2-|
A|-6-6-6-6-6-6-6-6-|-6-6-6-6-6-6-6-6-|-2-2-2-2-2-2-2-2-|-2-2-2-2-2-2-2-2-|
E|-4-4-4-4-4-4-4-4-|-4-4-4-4-4-4-4-4-|-0-0-0-0-0-0-0-0-|-0-0-0-0-0-0-0-0-|

e|-----------------|-----------------|-----------------|-----------------|
B|-----------------|-----------------|-----------------|-----------------|
G|-----------------|-----------------|-----------------|-----------------|
D|-4-4-4-4-4-4-4-4-|-4-4-4-4-4-4-4-4-|-2-2-2-2-2-2-2-2-|-2-2-2-2-2-2-2-2-|
A|-4-4-4-4-4-4-4-4-|-4-4-4-4-4-4-4-4-|-2-2-2-2-2-2-2-2-|-2-2-2-2-2-2-2-2-|
E|-2-2-2-2-2-2-2-2-|-2-2-2-2-2-2-2-2-|-0-0-0-0-0-0-0-0-|-0-0-0-0-0-0-0-0-|

e|-----------------|-----------------|-----------------|-----------------|
B|-----------------|-----------------|-----------------|-----------------|
G|-----------------|-----------------|-----------------|-----------------|
D|-6-6-6-6-6-6-6-6-|-6-6-6-6-6-6-6-6-|-2-2-2-2-2-2-2-2-|-2-2-2-2-2-2-2-2-|
A|-6-6-6-6-6-6-6-6-|-6-6-6-6-6-6-6-6-|-2-2-2-2-2-2-2-2-|-2-2-2-2-2-2-2-2-|
E|-4-4-4-4-4-4-4-4-|-4-4-4-4-4-4-4-4-|-0-0-0-0-0-0-0-0-|-0-0-0-0-0-0-0-0-|

e|-----------------|-----------------|-----------------|-----------------|
B|-----------------|-----------------|-----------------|-----------------|
G|-----------------|-----------------|-----------------|-----------------|
D|-4-4-4-4-4-4-4-4-|-4-4-4-4-4-4-4-4-|-2-2-2-2-2-2-2-2-|-2-2-2-2-2-2-2-2-|
A|-4-4-4-4-4-4-4-4-|-4-4-4-4-4-4-4-4-|-2-2-2-2-2-2-2-2-|-2-2-2-2-2-2-2-2-|
E|-2-2-2-2-2-2-2-2-|-2-2-2-2-2-2-2-2-|-0-0-0-0-0-0-0-0-|-0-0-0-0-0-0-0-0-|

e|-----------------|-----------------|-----------------|-----------------|
B|-----------------|-----------------|-----------------|-----------------|
G|-----------------|-4-4-4-4-4-4-4-4-|-----------------|-4-4-4-4-4-4-4-4-|
D|-6-6-6-6---2-2-2-|-4-4-4-4-4-4-4-4-|-6-6-6-6---2-2-2-|-4-4-4-4-4-4-4-4-|
A|-6-6-6-6---2-2-2-|-2-2-2-2-2-2-2-2-|-6-6-6-6---2-2-2-|-2-2-2-2-2-2-2-2-|
E|-4-4-4-4---0-0-0-|-----------------|-4-4-4-4---0-0-0-|-----------------|

e|-----------------|-----------------|-----------------|-----------------|
B|-----------------|-----------------|-----------------|-----------------|
G|-----------------|-4-4-4-4-4-4-4-4-|-----------------|-4-4-4-4-4-4-4-4-|
D|-6-6-6-6---2-2-2-|-4-4-4-4-4-4-4-4-|-6-6-6-6---2-2-2-|-4-4-4-4-4-4-4-4-|
A|-6-6-6-6---2-2-2-|-2-2-2-2-2-2-2-2-|-6-6-6-6---2-2-2-|-2-2-2-2-2-2-2-2-|
E|-4-4-4-4---0-0-0-|-----------------|-4-4-4-4---0-0-0-|-----------------|

e|-----------------|-----------------|
B|-----------------|-----------------|
G|-----------------|-4-4-4-4-4-4-4-4-|
D|-6-6-6-6---2-2-2-|-4-4-4-4-4-4-4-4-|
A|-6-6-6-6---2-2-2-|-2-2-2-2-2-2-2-2-|
E|-4-4-4-4---0-0-0-|-----------------|


Guitar 2:

e|-4---4-----------|-----------------|-0---0-----------|-----------------|
B|-4---4-----------|-----------------|-0---0-----------|-----------------|
G|-4---4-----------|-----------------|-1---1-----------|-----------------|
D|-6---6-----------|-----------------|-2---2-----------|-----------------|
A|-6---6-----------|---------------2-|-2---2-----------|---------------4-|
E|-4---4-----------|---------------0-|-0---0-----------|---------------2-|

e|-2---2-----------|-----------------|-0---0-----------|-----------------|
B|-2---2-----------|-----------------|-0---0-----------|-----------------|
G|-3---3-----------|-----------------|-1---1-----------|---8---13--11----|
D|-4---4-----------|-----------------|-2---2-----------|---x---x---x-----|
A|-4---4-----------|---------------2-|-2---2-----------|---6---11--9---6-|
E|-2---2-----------|---------------0-|-0---0-----------|---------------4-|

e|-4---4-----x-x---|-----------------|-0---0-----x-x---|-----------------|
B|-4---4-----x-x---|-----------------|-0---0-----x-x---|-----------------|
G|-4---4-----x-x---|-----------------|-1---1-----x-x---|-----------------|
D|-6---6-----x-x---|-----------------|-2---2-----x-x---|-----------------|
A|-6---6-----x-x---|---------------2-|-2---2-----x-x---|---------------4-|
E|-4---4-----x-x---|---------------0-|-0---0-----x-x---|---------------2-|

e|-2---2-----x-x---|-----------x-x---|-----------------|-----------------|
B|-2---2-----x-x---|-----------x-x---|-----------------|-----------------|
G|-3---3-----x-x---|-----------x-x---|-13--13--13131313|-131311119-9-8-8-|
D|-4---4-----x-x---|-----------x-x---|-x---x---x-x-x-x-|-x-x-x-x-x-x-x-x-|
A|-4---4-----x-x---|-----------x-x---|-11--11--11111111|-11119-9-7-7-6-6-|
E|-2---2-----x-x---|-----------x-x-0-|-0---0---0-0-0-0-|-----------------|

e|-----------------|-----------------|-----------------|-----------------|
B|-----------------|-----------------|-----------------|-----------------|
G|-8-8-8-8---9-9---|-8-8-8-8-8-8-8-8-|-8-8-8-8---9-9---|-8-8-8-8-8-8-8-8-|
D|-x-x-x-x---9-9---|-9-9-9-9-9-9-9-9-|-x-x-x-x---9-9---|-9-9-9-9-9-9-9-9-|
A|-6-6-6-6---7-7---|-9-9-9-9-9-9-9-9-|-6-6-6-6---7-7---|-9-9-9-9-9-9-9-9-|
E|-----------------|-7-7-7-7-7-7-7-7-|-----------------|-7-7-7-7-7-7-7-7-|

e|-----------------|-----------------|-----------------|-----------------|
B|-----------------|-----------------|-----------------|-----------------|
G|-8-8-8-8---9-9---|-8-8-8-8-8-8-8-8-|-8-8-8-8---9-9---|-8-8-8-8-8-8-8-8-|
D|-x-x-x-x---9-9---|-9-9-9-9-9-9-9-9-|-x-x-x-x---9-9---|-9-9-9-9-9-9-9-9-|
A|-6-6-6-6---7-7---|-9-9-9-9-9-9-9-9-|-6-6-6-6---7-7---|-9-9-9-9-9-9-9-9-|
E|-----------------|-7-7-7-7-7-7-7-7-|-----------------|-7-7-7-7-7-7-7-7-|

e|-4---4-----4-4---|-----------------|-0---0-----0-0---|-----------------|
B|-4---4-----4-4---|-----------------|-0---0-----0-0---|-----------------|
G|-4---4-----4-4---|-----------------|-1---1-----1-1---|-----------------|
D|-6---6-----6-6---|-----------------|-2---2-----2-2---|-----------------|
A|-6---6-----6-6---|---------------2-|-2---2-----2-2---|---------------4-|
E|-4---4-----4-4---|---------------0-|-0---0-----0-0---|---------------2-|

e|-2---2-----2-2---|-----------------|-----------------|-----------------|
B|-2---2-----2-2---|-----------------|-----------------|-----------------|
G|-3---3-----3-3---|-----------------|-13--13----1313--|---8---13--11--8-|
D|-4---4-----4-4---|-----------------|-x---x-----x-x---|---x---x---x---x-|
A|-4---4-----4-4---|---------------11|-11--11----1111--|---6---11--9---6-|
E|-2---2-----2-2---|---------------0-|-0---0-----0-0---|-----------------|

e|-----------------|-----------------|-----------------|-----------------|
B|-----------------|-----------------|-----------------|-----------------|
G|-8---8-8---8-8-8-|---8---11--13----|-4---4-4---4-4-4-|---8---13--11--3-|
D|-x---x-x---x-x-x-|---x---x---x-----|-x---x-x---x-x-x-|---x---x---x---x-|
A|-6---6-6---6-6-6-|---6---9---11--2-|-2---2-2---2-2-2-|---6---11--9---1-|
E|-----------------|---------------0-|-0---0-0---0-0-0-|-----------------|

e|-----------------|-----------------|-----------------|-----------------|
B|-----------------|-----------------|-----------------|-----------------|
G|-3---3-3---3-3-3-|---8---13--11----|-13--13--6-6-6-6-|-8-8-8-8-4-4-4-4-|
D|-x---x-x---x-x-x-|---x---x---x-----|-x---x---x-x-x-x-|-x-x-x-x-x-x-x-x-|
A|-1---1-1---1-1-1-|---6---11--9-----|-11--11--4-4-4-4-|-6-6-6-6-2-2-2-2-|
E|-----------------|---------------0-|-0---0---0-0-0-0-|-0-0-0-0-0-0-0-0-|

e|-----------------|-----------------|-----------------|-----------------|
B|-----------------|-----------------|-----------------|-----------------|
G|-8-8-8-8---9-9---|-8-8-8-8-8-8-8-8-|-8-8-8-8---9-9---|-8-8-8-8-8-8-8-8-|
D|-x-x-x-x---9-9---|-9-9-9-9-9-9-9-9-|-x-x-x-x---9-9---|-9-9-9-9-9-9-9-9-|
A|-6-6-6-6---7-7---|-9-9-9-9-9-9-9-9-|-6-6-6-6---7-7---|-9-9-9-9-9-9-9-9-|
E|-----------------|-7-7-7-7-7-7-7-7-|-----------------|-7-7-7-7-7-7-7-7-|

e|-----------------|-----------------|-----------------|-----------------|
B|-----------------|-----------------|-----------------|-----------------|
G|-8-8-8-8---9-9---|-8-8-8-8-8-8-8-8-|-8-8-8-8---9-9---|-----------------|
D|-x-x-x-x---9-9---|-9-9-9-9-9-9-9-9-|-x-x-x-x---9-9---|-4-.-.-.-.-.-.-.-|
A|-6-6-6-6---7-7---|-9-9-9-9-9-9-9-9-|-6-6-6-6---7-7---|-4-4-4-4-4-4-4-4-|
E|-----------------|-7-7-7-7-7-7-7-7-|-----------------|-2-2-2-2-2-2-2-2-|

e|-----------------|
B|-----------------|
G|-----------------|
D|---------4-4-4-4-|
A|-4-4-4-4-4-4-4-4-|
E|-2-2-2-2-2-2-2-2-|

e|-----------------|-----------------|-----------------|-----------------|
B|---------4-------|---------4br-2p0-|---------0-------|---------0h2-4---|
G|-------------4---|-----------------|-----1-------1---|-----------------|
D|-----------------|-----------------|-----------------|-----------------|
A|-----2-----------|-----------------|-----------------|-----------------|
E|-4---------------|-----------------|-0---------------|-----------------|

e|-----------------|-----------------|-----------------|-----------------|
B|---------4-------|-------4~b~r-2p0-|---------0-------|---------0h2-4~b~|
G|-------------4---|-----------------|-----1-------1---|-----------------|
D|-----------------|-----------------|-----------------|-----------------|
A|-----2-----------|-----------------|-----------------|-----------------|
E|-4---------------|-----------------|-0---------------|-----------------|

e|-----------------|-----------------|-----------------|-----------------|
B|~r---4-----------|-----------------|-----------------|-----------------|
G|-------------4---|-----4-----------|-3---------------|-----------------|
D|-----------------|-----------------|---------4-------|-------------4---|
A|-----------------|-----------------|-------------4---|-----------------|
E|-----------------|-----------------|-----------------|-----------------|

e|---------4-------|-----------------|-----------------|-----------------|
B|-------------7---|-----------------|---------7-------|-----------------|
G|-----4-----------|-----------------|-------------4---|-----------1111--|
D|/6---------------|-----------------|-----6-----------|-----------1111--|
A|-----------------|-----------------|-7---------------|-----------9-9---|
E|-----------------|-----------------|-----------------|-----------------|

e|-----------------|-----------------|-----------------|-----------------|
B|-----------------|-----------------|-----------------|-----------------|
G|-1313131313131313|-1313131313111111|-9-9-9-9-9-9-9-9-|-9-9-9-9-9-9-8-8-|
D|-1313131313131313|-1313131313x-x-x-|-x-x-x-x-x-x-x-x-|-x-x-x-x-x-x-x-x-|
A|-1111111111111111|-11111111119-9-9-|-7-7-7-7-7-7-7-7-|-7-7-7-7-7-7-6-6-|
E|-----------------|-----------------|-----------------|-----------------|

e|-----------------|-----------------|-----0-------0---|---12--12--12--12|
B|-----------------|-------------x---|-----0-------0---|---x---x---x---x-|
G|-6-6-6-6-6-6-6-6-|-6-6-6-6-6/~/x---|-----1-------1---|---9---9---9---9-|
D|-x-x-x-x-x-x-x-x-|-x-x-x-x-x---x-0-|-----2-------2---|-----------------|
A|-4-4-4-4-4-4-4-4-|-4-4-4-4-4/~/x-0-|-2---2---2---2---|-----------------|
E|-----------------|-----------------|-0---0---0---0---|-----------------|

e|-1111111111111111|-1111111111111111|-7-7-7-7-7-7-7-7-|-1212121211111111|
B|-x-x-x-x-x-x-x-x-|-x-x-x-x-x-x-x-x-|-x-x-x-x-x-x-x-x-|-x-x-x-x-x-x-x-x-|
G|-8-8-8-8-8-8-8-8-|-8-8-8-8-8-8-8-8-|-4-4-4-4-4-4-4-4-|-9-9-9-9-8-8-8-8-|
D|-----------------|-----------------|-----------------|-----------------|
A|-----------------|-----------------|-----------------|-----------------|
E|-----------------|-----------------|-----------------|-----------------|

e|-----------------|-----------------|-----0-------0---|-----0-0-0-0-0-0-|
B|-2-2-2-2-2-2-2-2-|-2-2-2-2-2-2-2-2-|-----0-------0---|-----0-0-0-0-0-0-|
G|-3-3-3-3-3-3-3-3-|-3-3-3-3-3-3-3-3-|-----1-------1---|-----1-1-1-1-1-1-|
D|-4-4-4-4-4-4-4-4-|-4-4-4-4-4-4-4-4-|-----2-------2---|-----2-2-2-2-2-2-|
A|-4-4-4-4-4-4-4-4-|-4-4-4-4-4-4-4-4-|-2-2-2---2-2-2---|-2-2-2-2-2-2-2-2-|
E|-----------------|-----------------|-0-0-0---0-0-0---|-0-0-0-0-0-0-0-0-|

e|-----------------|-----------------|-----------------|-----------------|
B|-----------------|-----------------|-----------------|-----------------|
G|-8-8-8-8---9-9---|-8-8-8-8-8-8-8-8-|-8-8-8-8---9-9---|-8-8-8-8-8-8-8-8-|
D|-x-x-x-x---9-9---|-9-9-9-9-9-9-9-9-|-x-x-x-x---9-9---|-9-9-9-9-9-9-9-9-|
A|-6-6-6-6---7-7---|-9-9-9-9-9-9-9-9-|-6-6-6-6---7-7---|-9-9-9-9-9-9-9-9-|
E|-----------------|-7-7-7-7-7-7-7-7-|-----------------|-7-7-7-7-7-7-7-7-|

e|-----------------|-----------------|-----------------|-----------------|
B|-----------------|-----------------|-----------------|-----------------|
G|-8-8-8-8---9-9---|-8-8-8-8-8-8-8-8-|-8-8-8-8---9-9---|-8-8-8-8-8-8-8-8-|
D|-x-x-x-x---9-9---|-9-9-9-9-9-9-9-9-|-x-x-x-x---9-9---|-9-9-9-9-9-9-9-9-|
A|-6-6-6-6---7-7---|-9-9-9-9-9-9-9-9-|-6-6-6-6---7-7---|-9-9-9-9-9-9-9-9-|
E|-----------------|-7-7-7-7-7-7-7-7-|-----------------|-7-7-7-7-7-7-7-7-|

e|-----------------|-----------------|
B|-----------------|-----------------|
G|-8-8-8-8---9-9---|-8-8-8-8-8-8-8-8-|
D|-x-x-x-x---9-9---|-9-9-9-9-9-9-9-9-|
A|-6-6-6-6---7-7---|-9-9-9-9-9-9-9-9-|
E|-----------------|-7-7-7-7-7-7-7-7-|
comments
We did not receive enough feedback on this tab! Please rate:
print report bad tab
1 2 3 4 5
I want to post or [tab]
guest
You may want to rate the tab now too:
select rating
Please do not post tabs as comments. Select "correction" instead!