Oops, an error
Loading. Please wait.

At Your Funeral Tab

ver5
ver5

Solo

Whole song

Interactive

More versions @911Tabs.com
95 views 3 this week
no commentswrite comment
1 2 3 4 5
please rate
Autoscroll
+/-
esc
set tempo
stop
Difficulty
intermediate
Hey! There's an official Ultimate Guitar app which is ideal
for learning songs when you're away from computer. Get the app
WARNING: You are trying to view
                                    content from Ultimate-Guitar.com
                                    in an unauthorized application,
                                    which is prohibited.

                                    Please use an official Ultimate
                                    Guitar Tabs application for iPhone,
                                    iPad or Android to access legitimate
                                    chords, guitar, bass, and drum tabs
                                    from Ultimate-Guitar.com database.

                                    Type "ultimate guitar tabs" in Apple
                                    App Store's or Android Market's
                                    search to find the application.
Saves The Day – At Your Funeral 

Guitar 1:

Intro:
e|-----------------|-----------------|-----------------|-----------------|
B|-----------------|-----------------|-----------------|-----------------|
G|-7---------------|-6---------------|-----0-----------|-----------------|
D|-----------------|-----------------|-----------------|-----4-----------|
A|-----------------|-----------------|-----------------|-----------------|
E|-----------------|-----------------|-0---------------|-3---------------|

e|-----------------|-----------------|-----------------|-----------------|
B|-----------------|-----------------|-------------7---|-----------------|
G|-7---------------|-6---------------|---------7-------|---------0---2---|
D|-----------------|-----------------|-----5-----------|-----4-----------|
A|-----------------|-----------------|-----------------|-----------------|
E|-----------------|-----------------|-0---------------|-3---------------|

e|-----------------|-----------------|-----------------|-----------------|
B|-3---------------|-2---------------|-------------7---|-------------3---|
G|-2---------------|-2---------------|---------7-------|---------2-------|
D|-0---------------|-2---------------|-----5-----------|-----4-----------|
A|-----------------|-----------------|-----------------|-----------------|
E|-----------------|-----------------|-0---------------|-3---------------|

e|-----------------|-----------------|-----------------|-----------------|
B|-2---------------|-----------------|-3---------------|-2---------------|
G|-2---------------|-0---------------|-2---------------|-2---------------|
D|-2---------------|-2---------------|-4---------------|-2---------------|
A|-0---------------|-2---------------|-2---------------|-0---------------|
E|-----------------|-0---------------|-----------------|-----------------|

e|-3---------------|-----------------|-3---------------|-----------------|
B|-3-------3-------|-2---------------|-3-------3-------|-2---------------|
G|-0-------2-------|-2---------------|-0-------2-------|-2---------------|
D|-0-------0-------|-2---------------|-0-------0-------|-2---------------|
A|-2-------0-------|-0---------------|-2-------0-------|-0---------------|
E|-3---------------|-----------------|-3---------------|-----------------|

Verse:
e|-----|-----------------|----------------|----------------|------------|
B|---3-|---3---3-3-3---3-|---3---3-3-3--2-|---2---2-2-2--3-|--2--0--2-0-|
G|---2-|---2---2-2-2---2-|---2---2-2-2--2-|---2---2-2-2--2-|--2--2--2-0-|
D|---0-|---0---0-0-0---0-|---0---0-0-0--2-|---2---2-2-2--2-|--2--2--2-2-|
A|---0-|---0---0-0-0---0-|---0---0-0-0--0-|---0---0-0-0--0-|--0--0--0-2-|
E|-----|-----------------|----------------|----------------|----------0-|

e|-----------------|---------------3-|---3---3-3-3---3-|---3---3-3-3----|
B|---0---0-0-0---0-|---0---0-0-0---3-|---3---3-3-3---3-|---3---3-3-3----|
G|---0---0-0-0---0-|---0---0-0-0---0-|---0---0-0-0---0-|---0---0-0-0----|
D|---2---2-2-2---2-|---2---2-2-2---0-|---0---0-0-0---0-|---0---0-0-0----|
A|---2---2-2-2---2-|---2---2-2-2---2-|---2---2-2-2---2-|---2---2-2-2----|
E|---0---0-0-0---0-|---0---0-0-0---3-|---3---3-3-3---3-|---3---3-3-3----|

Prechorus:
e|-----0-----------|-----------------|-----0-----------|-----------------|
B|-----0-----------|-----------------|-----0-----------|---------------3-|
G|-----2-----------|---------2-2-2---|-----0-----------|---------------4-|
D|-----2-----------|---------2-2-2-2-|-----2-----------|---------------4-|
A|-----0-----------|---------0-0-0-2-|-----2-----------|---------------2-|
E|-----------------|---------------0-|-----0-----------|-----------------|

e|-----------------|-----------------|-----------------|---------------3-|
B|---3-3---3-3-3---|-3-3-3-3-3-3-3-2-|---2-2---2-2-2-2-|-2-2-2-2-2-2-2-3-|
G|---4-4---4-4-4---|-4-4-4-4-4-4-4-2-|---2-2---2-2-2-2-|-2-2-2-2-2-2-2-0-|
D|---4-4---4-4-4---|-4-4-4-4-4-4-4-2-|---2-2---2-2-2-2-|-2-2-2-2-2-2-2-0-|
A|---2-2---2-2-2---|-2-2-2-2-2-2-2-0-|---0-0---0-0-0-0-|-0-0-0-0-0-0-0-2-|
E|-----------------|-----------------|-----------------|---------------3-|

Chorus:
e|-----3---3-3-3-2-|-----2---2-2-2---|-----------------|-----------------|
B|-----3---3-3-3-3-|-----3---3-3-3-2-|-----2---2-------|---3-------3-----|
G|-----0---0-0-0-2-|-----2---2-2-2-2-|-----2---2-----2-|/4-----4h6---6/4-|
D|-----0---0-0-0-0-|-----0---0-0-0-2-|-----2---2-------|-----------------|
A|-----2---2-2-2-0-|-----0---0-0-0-0-|-----0---0-------|-----------------|
E|-----3---3-3-3---|-----------------|-----------------|-----------------|

e|---------------2-|-----2---2-2-2---|-----------------|-----------------|
B|---------------3-|-----3---3-3-3-2-|-----2---2-------|---3-------3-----|
G|-----2---------2-|-----2---2-2-2-2-|-----2---2-----2-|/4-----4h6---6/4-|
D|---------------0-|-----0---0-0-0-2-|-----2---2-------|-----------------|
A|---------------0-|-----0---0-0-0-0-|-----0---0-------|-----------------|
E|-----------------|-----------------|-----------------|-----------------|

e|---------------2-|-----2---2-2-2---|-----------------|-----------------|
B|---------------3-|-----3---3-3-3-2-|-----2---2-------|---3-------3-----|
G|-----2---------2-|-----2---2-2-2-2-|-----2---2-----2-|/4-----4h6---6/4-|
D|---------------0-|-----0---0-0-0-2-|-----2---2-------|-----------------|
A|---------------0-|-----0---0-0-0-0-|-----0---0-------|-----------------|
E|-----------------|-----------------|-----------------|-----------------|

e|---------------2-|-----2---2-2-2---|-----------------|---------------2-|
B|---------------3-|-----3---3-3-3-2-|-----2---2-2-2---|-2-2-2-2-2-2---3-|
G|-----2---------2-|-----2---2-2-2-2-|-----2---2-2-2---|-2-2-2-2-2-2---2-|
D|---------------0-|-----0---0-0-0-2-|-----2---2-2-2---|-2-2-2-2-2-2---0-|
A|---------------0-|-----0---0-0-0-0-|-----0---0-0-0---|-0-0-0-0-0-0---0-|
E|-----------------|-----------------|-----------------|-----------------|

Verse
Prechorus

Chorus 2:
e|-----3---3-3-3-2-|-----2---2-2-2---|-----------------|-----------------|
B|-----3---3-3-3-3-|-----3---3-3-3-2-|-----2---2-------|---3-------3-----|
G|-----0---0-0-0-2-|-----2---2-2-2-2-|-----2---2-----2-|/4-----4h6---6/4-|
D|-----0---0-0-0-0-|-----0---0-0-0-2-|-----2---2-------|-----------------|
A|-----2---2-2-2-0-|-----0---0-0-0-0-|-----0---0-------|-----------------|
E|-----3---3-3-3---|-----------------|-----------------|-----------------|
=
e|---------------2-|-----2---2-2-2---|-----------------|-----------------|
B|---------------3-|-----3---3-3-3-2-|-----2---2-------|---3-------3-----|
G|-----2---------2-|-----2---2-2-2-2-|-----2---2-----2-|/4-----4h6---6/4-|
D|---------------0-|-----0---0-0-0-2-|-----2---2-------|-----------------|
A|---------------0-|-----0---0-0-0-0-|-----0---0-------|-----------------|
E|-----------------|-----------------|-----------------|-----------------|

e|---------------2-|-----2---2-2-2---|-----------------|-----------------|
B|---------------3-|-----3---3-3-3-2-|-----2---2-------|---3-------3-----|
G|-----2---------2-|-----2---2-2-2-2-|-----2---2-----2-|/4-----4h6---6/4-|
D|---------------0-|-----0---0-0-0-2-|-----2---2-------|-----------------|
A|---------------0-|-----0---0-0-0-0-|-----0---0-------|-----------------|
E|-----------------|-----------------|-----------------|-----------------|

e|---------------2-|-----2---2-2-2---|-----------------|-----------------|
B|---------------3-|-----3---3-3-3-2-|-----2---2-------|---3-------3---10b
G|-----2---------2-|-----2---2-2-2-2-|-----2---2-----2-|/4-----4h6-------|
D|---------------0-|-----0---0-0-0-2-|-----2---2-------|-----------------|
A|---------------0-|-----0---0-0-0-0-|-----0---0-------|-----------------|
E|-----------------|-----------------|-----------------|-----------------|

Over Last Chorus:
e|-----------------|-----------------|-----------------|-----------------|
B|~~~r-------------|---------------10b~~~r-------------|---------------10b
G|-------11--9-----|---9-------------|-------11--9-----|---9-------------|
D|---------------12|-------12--11----|---------------12|-------12--11----|
A|-----------------|-----------------|-----------------|-----------------|
E|-----------------|-----------------|-----------------|-----------------|

e|-----------------|-----------------|-----------------|-----------------|
B|~~~r-------------|---------------10b~~~r-------------|---------------10b
G|-------11--9-----|---9-------------|-------11--9-----|---9---11--9-----|
D|---------------12|-------12--11----|---------------12|-----------------|
A|-----------------|-----------------|-----------------|-----------------|
E|-----------------|-----------------|-----------------|-----------------|

e|-----------------|-----------------|-----------------|-----------------|
B|~~~r-------------|---------------10b~~~r-------------|---------------10b
G|-------11--9-----|---9-------------|-------11--9-----|---9-------------|
D|---------------12|-------12--11----|---------------12|-------12--11----|
A|-----------------|-----------------|-----------------|-----------------|
E|-----------------|-----------------|-----------------|-----------------|

e|-----------------|-----------------|-----------------|-----------------|
B|~~~r-------------|---------------10b~~~r-------------|-----------------|
G|-------11--9-----|---9-------------|-------11--9-----|---9---11--9-11--|
D|---------------12|-------12--11----|---------------12|-----------------|
A|-----------------|-----------------|-----------------|-----------------|
E|-----------------|-----------------|-----------------|-----------------|

End:
e|---------|-3---------------|-2---------------|-----------------|
B|-2-------|-3---------------|-3---------------|-2---------------|
G|-2-------|-0---------------|-2---------------|-2---------------|
D|-2-------|-0---------------|-0---------------|-2---------------|
A|-0-------|-2---------------|-0---------------|-0---------------|
E|---------|-3---------------|-----------------|-----------------|

Guitar 2:

Intro:

e|-----------------|-----------------|-3-----------0---|-----------------|
B|-3-------3-------|-2---------------|-3-------3-------|-2---------------|
G|-0-------2-------|-2---------------|-0-------2-------|-2---------------|
D|-0-------0-------|-2---------------|-0-------0-------|-2---------------|
A|-2-------0-------|-0---------------|-2-------0-------|-0---------------|
E|-3---------------|-----------------|-3---------------|-----------------|


Verse:
e|-----------------|-----------------|-----------------|-----------------|
B|---7---7-7-----7-|---7---7-7-------|-----------------|---------------8-|
G|---7---7-7-----7-|---7---7-7-----6-|---6---6-6-----7-|---6-------6---9-|
D|---0---0-0-----0-|---0---0-0-----7-|---7---7-7-----7-|---7---9---7---9-|
A|---0---0-0-----0-|---0---0-0-----0-|---0---0-0-----0-|---0---0---0---7-|
E|-----------------|-----------------|-----------------|-----------------|

e|-----------------|-----------------|-----------------|--------------|
B|---8---8-8-----8-|---8---8-8-----8-|---8---8-8-----8-|---8---8-8----|
G|---9---9-9-----9-|---9---9-9-----7-|---7---7-7-----7-|---7---7-7----|
D|---9---9-9-----9-|---9---9-9-----5-|---5---5-5-----5-|---5---5-5----|
A|---7---7-7-----7-|---7---7-7-------|-----------------|--------------|
E|-----------------|-----------------|-----------------|--------------|

e|-----------------|-----------------|-----------------|-----------------|
B|-----------------|-----------------|-----------------|---------------8-|
G|---7---7-7-----7-|---7---7-7-----9-|---9---9-9-----7-|---6-------6---9-|
D|---7---7-7-----7-|---7---7-7-----7-|---7---7-7-----7-|---7---9---7---9-|
A|---5---5-5-----5-|---5---5-5-----7-|---7---7-7-----0-|---0---0---0---7-|
E|-----------------|-----------------|-----------------|-----------------|

e|-----------------|-----------------|-----------------|-----------------|
B|---8---8-8-----8-|---8---8-8-------|-----------------|---------------5-|
G|---9---9-9-----9-|---9---9-9-------|-----------------|---------------6-|
D|---9---9-9-----9-|---9---9-9-----5-|---5-5---5-5-5-5-|-5-5-5-5-5-5-x-7-|
A|---7---7-7-----7-|---7---7-7-----5-|---5-5---5-5-5-5-|-5-5-5-5-5-5-x-0-|
E|-----------------|---------------3-|---3-3---3-3-3-3-|-3-3-3-3-3-3-x---|

Prechorus:
e|-----------------|-----------------|-----0-----------|---------------7-|
B|-----5-------5---|-5h7-----5-------|-----0-----------|---------------7-|
G|-----6-------6---|-6h7-----6-------|-----0-----------|---------------7-|
D|-----7-------7---|-0---------------|-----2-----------|---------------9-|
A|-----0-------0---|-0---------------|-----2-----------|---------------9-|
E|-----------------|---------------0-|-----0-----------|---------------7-|

e|---7-7---7-7-7---|-7-7-7-7---------|-----------------|-----------------|
B|---7-7---7-7-7---|-7-7-7-7-------2-|---2-2---2-2-2-2-|-2-2-2-2-2-2-2-3-|
G|---7-7---7-7-7---|-7-7-7-7-----x-2-|---2-2---2-2-2-2-|-2-2-2-2-2-2-2-0-|
D|---9-9---9-9-9---|-9-9-9-9-----x-2-|---2-2---2-2-2-2-|-2-2-2-2-2-2-2-0-|
A|---9-9---9-9-9---|-9-9-9-9-9p7-x-0-|---0-0---0-0-0-0-|-0-0-0-0-0-0-0-2-|
E|---7-7---7-7-7---|-7-7-7-7-----x---|-----------------|---------------3-|


Chorus:
e|-----------------|-----------------|-----------------|---------------|
B|-----3---3-3-3-3-|-----3---3-3-3-2-|-----2---2-2-2-2-|---2-2---2-2-2-|
G|-----0---0-0-0-2-|-----2---2-2-2-2-|-----2---2-2-2-2-|---2-2---2-2-2-|
D|-----0---0-0-0-0-|-----0---0-0-0-2-|-----2---2-2-2-2-|---2-2---2-2-2-|
A|-----2---2-2-2-0-|-----0---0-0-0-0-|-----0---0-0-0-0-|---0-0---0-0-0-|
E|-----3---3-3-3---|-----------------|-----------------|---------------|

e|-----------------|-----------------|-----------------|-----------------|
B|-----3---3-3-3-3-|-----3---3-3-3-2-|-----2---2-2-2-2-|---2-2---2-2-2-3-|
G|-----0---0-0-0-2-|-----2---2-2-2-2-|-----2---2-2-2-2-|---2-2---2-2-2-0-|
D|-----0---0-0-0-0-|-----0---0-0-0-2-|-----2---2-2-2-2-|---2-2---2-2-2-0-|
A|-----2---2-2-2-0-|-----0---0-0-0-0-|-----0---0-0-0-0-|---0-0---0-0-0-2-|
E|-----3---3-3-3---|-----------------|-----------------|---------------3-|

e|-----------------|-----------------|-----------------|-------------|
B|-----3---3-3-3-3-|-----3---3-3-3-2-|-----2---2-2-2---|-2-2-2-2-2-2-|
G|-----0---0-0-0-2-|-----2---2-2-2-2-|-----2---2-2-2---|-2-2-2-2-2-2-|
D|-----0---0-0-0-0-|-----0---0-0-0-2-|-----2---2-2-2---|-2-2-2-2-2-2-|
A|-----2---2-2-2-0-|-----0---0-0-0-0-|-----0---0-0-0---|-0-0-0-0-0-0-|
E|-----3---3-3-3---|-----------------|-----------------|-------------|

Verse
Prechorus
Chorus

Ending:
e|-----------------|-----------------|-----------------|-----------------|
B|-3---------------|-3---------------|-2---------------|-----------------|
G|-0---------------|-2---------------|-2---------------|-----------------|
D|-0---------------|-0---------------|-2---------------|-----------------|
A|-2---------------|-0---------------|-0---------------|-----------------|
E|-3---------------|-----------------|-----------------|-----------------|

e|-----------------|-----------------|-----------------|-----------------|
B|-3---------------|-3---------------|-2---------------|-----------------|
G|-0---------------|-2---------------|-2---------------|-----------------|
D|-0---------------|-0---------------|-2---------------|-----------------|
A|-2---------------|-0---------------|-0---------------|-----------------|
E|-3---------------|-----------------|-----------------|-----------------|
comments
We did not receive enough feedback on this tab! Please rate:
print report bad tab
1 2 3 4 5
I want to post or [tab]
guest
You may want to rate the tab now too:
select rating
Please do not post tabs as comments. Select "correction" instead!