Oops, an error
Loading. Please wait.

Shunkan Sentimental Tab

ver4
ver4

Solo

Whole song

Interactive

More versions @911Tabs.com
593 views 9 this week
no commentswrite comment
1 2 3 4 5
please rate
add to favorites launch autoscroll
font size
0
reset
Autoscroll
+/-
esc
set tempo
stop
Contributor
WARNING: You are trying to view
                                    content from Ultimate-Guitar.com
                                    in an unauthorized application,
                                    which is prohibited.

                                    Please use an official Ultimate
                                    Guitar Tabs application for iPhone,
                                    iPad or Android to access legitimate
                                    chords, guitar, bass, and drum tabs
                                    from Ultimate-Guitar.com database.

                                    Type "ultimate guitar tabs" in Apple
                                    App Store's or Android Market's
                                    search to find the application.
SCANDAL - Shunkan Sentimental Guitar Tab

by Scalar719

Tuning: Drop D


[Intro]

Guitar 1 (lead)
e|---------------------------------------------------------------------------|
B|---------------------------------------------------------------------------|
G|---------------------------------------------------------------------------|
D|----------------------------------------(pick slide)-----------------------|
A|----------------------------------------(pick slide)-----------------------|
D|---------------------------------------------------------------------------|

e|---------------------------------------------------------------------------|
B|---------------------------------------------------------------------------|
G|----14-16-16b18r16-14----16b18r16-14-----16b18r16-14-----------------------|
D|-16------------------16-------------16--------------16-14-16--14-15--------|
A|---------------------------------------------------------------------------|
D|---------------------------------------------------------------------------|

e|---------------------------------------------------------------------------|
B|-17-15-14------------------------------------------------------------------|
G|----------16-14-13-14-16-16b18r16-14---16b18r16-14-------------14----------|
D|------------------------------------16------------16--14-15-16----16-------|
A|---------------------------------------------------------------------------|
D|---------------------------------------------------------------------------|


Guitar 2 (Rhythm)
e|---------------------------------------------------------------------------|
B|---------------------------------------------------------------------------|
G|-11-11-11---10-10-10---9-9-9---8-8-8---------------------------------------|
D|-x--x--x----x--x--x----x-x-x---x-x-x---------------------------------------|
A|-9--9--9----8--8--8----7-7-7---6-6-6------------(pick slide)---------------|
D|------------------------------------------------(pick slide)---------------|

e|---------------------------------------------------------------------------|
B|---------------------------------------------------------------------------|
G|-7-7-7-7-7-7--7/9-9-9-9-9-9-9-9--11-11-11-11-11-11-11-11--6-6-6-6-6-6------|
D|-7-7-7-7-7-7--7/9-9-9-9-9-9-9-9--11-11-11-11-11-11-11-11--6-6-6-6-6-6------|
A|-5-5-5-5-5-5--5/7-7-7-7-7-7-7-7--9--9--9--9--9--9--9--9---4-4-4-4-4-4------|
D|---------------------------------------------------------------------------|

e|---------------------------------------------------------------------------|
B|---------------------------------------------------------------------------|
G|-7-7-7-7-7-7--7/9-9-9-9-9-9-9-9--11----------------------------------------|
D|-7-7-7-7-7-7--7/9-9-9-9-9-9-9-9--11----------------------------------------|
A|-5-5-5-5-5-5--5/7-7-7-7-7-7-7-7--9-----------------------------------------|
D|---------------------------------------------------------------------------|


[Verse 1]

Guitar 1 (lead)
e|---------------------------------------------------------------------------|
B|---------------------------------------------------------------------------|
G|------------------6-6-6-6-6-6-6-6--7-7-7-7-7-7-7-7-------------------------|
D|-4-4-4-4-4-4-4-4--6-6-6-6-6-6-6-6--7-7-7-7-7-7-7-7--7-7-7-7-7-7-7-7--------|
A|-4-4-4-4-4-4-4-4--4-4-4-4-4-4-4-4--5-5-5-5-5-5-5-5--7-7-7-7-7-7-7-7--------|
D|-4-4-4-4-4-4-4-4------------------------------------7-7-7-7-7-7-7-7--------|
[pm..........................................................................]

e|---------------------------------------------------------------------------|
B|--------------------------------------------------------------------(2)----|
G|------------------6-6-6-6-6-6-6-6--7-7-7-7-7-7-7-7--2-2--2--2--2--2---(2)--|
D|-4-4-4-4-4-4-4-4--6-6-6-6-6-6-6-6--7-7-7-7-7-7-7-7--2-2--2--2--2--2--------|
A|-4-4-4-4-4-4-4-4--4-4-4-4-4-4-4-4--5-5-5-5-5-5-5-5--0-0--0--0--0--0--------|
D|-4-4-4-4-4-4-4-4-----------------------------------------------------------|
[pm................................................]

e|---------------------------------------------------------------------------|
B|---------------------------------------------------------------------------|
G|------------------6-6-6-6-6-6-6-6--7-7-7-7-7-7-7-7-------------------------|
D|-4-4-4-4-4-4-4-4--6-6-6-6-6-6-6-6--7-7-7-7-7-7-7-7--7-7-7-7-7-7-7-7--------|
A|-4-4-4-4-4-4-4-4--4-4-4-4-4-4-4-4--5-5-5-5-5-5-5-5--7-7-7-7-7-7-7-7--------|
D|-4-4-4-4-4-4-4-4------------------------------------7-7-7-7-7-7-7-7--------|

(Guitar 2 joins in)
e|---------------------------------------------------------------------------|
B|---------------------------------------------------------------------------|
G|------------------6-6-6-6-6-6-6-6---7-7--9-9-------------------------------|
D|-4-4-4-4-4-4-4-4--6-6-6-6-6-6-6-6---7-7--9-9--------7-7-7-7-7-7-7-7--------|
A|-4-4-4-4-4-4-4-4--4-4-4-4-4-4-4-4---5-5--7-7--------7-7-7-7-7-7-7-7--------|
D|-4-4-4-4-4-4-4-4------------------------------------7-7-7-7-7-7-7-7--------|


[Pre-Chorus 1]

Guitar 1 (lead)
e|-----12-----12--------12*--------------------------------------------------|
B|---------------------------------------------------------------------------|
G|---------------------------------------------------------------------------|
D|---------------------------4-4-4-4-4-4-4-4--7-7-7-7-7-7-7-7----------------|
A|---------------------------4-4-4-4-4-4-4-4--7-7-7-7-7-7-7-7----------------|
D|---------------------------4-4-4-4-4-4-4-4--7-7-7-7-7-7-7-7----------------|

e|----------15-----------15--------------------------------------------------|
B|-------15-----------15-----------------------------------------------------|
G|----11-----------13----------------9-9-9-9-9-9-9-9--6-6-6-6\---------------|
D|-12-----------14-------------------9-9-9-9-9-9-9-9--6-6-6-6\---------------|
A|-----------------------------------7-7-7-7-7 7-7-7--4-4-4-4\---------------|
D|---------------------------------------------------------------------------|


Guitar 2 (Rhythm)
e|---------------------------------------------------------------------------|
B|---------------------------------------------------------------------------|
G|-9-9----9-9----10-10-------------------------------------------------------|
D|-9-9----9-9----10-10----4-4-4-4-4-4-4-4--7-7-7-7-7-7-7-7-------------------|
A|-7-7----7-7----8--8-----4-4-4-4-4-4-4-4--7-7-7-7-7-7-7-7-------------------|
D|------------------------4-4-4-4-4-4-4-4--7-7-7-7-7-7-7-7-------------------|

e|---------------------------------------------------------------------------|
B|---------------------------------------------------------------------------|
G|-7-7-7-7-7-7-7-7--8-8-8-8-8-8-8-8--9-9-9-9-9-9-9-9--6-6-6-6\---------------|
D|-7-7-7-7-7-7-7-7--6-6-6-6-6-6-6-6--9-9-9-9-9-9-9-9--6-6-6-6\---------------|
A|-5-5-5-5-5-5-5-5--6-6-6-6-6-6-6-6--7-7-7-7-7 7-7-7--4-4-4-4\---------------|
D|---------------------------------------------------------------------------|



[Chorus]

Guitar 1 (lead) & Guitar 2 (Rhythm)
e|---------------------------------------------------------------------------|
B|---------------------------------------------------------------------------|
G|-7-7-7-7-7-7-7-7--9-9-9-9-9-9-9-9--11-11-11-11-11-11-11-11--6-6-6-6-6-6-6-6|
D|-7-7-7-7-7-7-7-7--9-9-9-9-9-9-9-9--11-11-11-11-11-11-11-11--6-6-6-6-6-6-6-6|
A|-5-5-5-5-5-5-5-5--7-7-7-7-7-7-7-7--9--9--9--9--9--9--9--9---4-4-4-4-4-4-4-4|
D|---------------------------------------------------------------------------|

e|---------------------------------------------------------------------------|
B|---------------------------------------------------------------------------|
G|-7-7-7-7-7-7-7-7--9-9-9-9-9-9-9-9-------------------6-6--6--6--6-----------|
D|-7-7-7-7-7-7-7-7--9-9-9-9-9-9-9-9--7-7-7-7-7-7-7-7--6-6--6--6--6-----------|
A|-5-5-5-5-5-5-5-5--7-7-7-7-7-7-7-7--7-7-7-7-7-7-7-7--4-4--4--4--4-----------|
D|-----------------------------------7-7-7-7-7-7-7-7-------------------------|

e|---------------------------------------------------------------------------|
B|---------------------------------------------------------------------------|
G|-7-7-7-7-7-7-7-7--9-9-9-9-9-9-9-9--11-11-11-11-11-11-11-11--6-6-6-6-6-6-6-6|
D|-7-7-7-7-7-7-7-7--9-9-9-9-9-9-9-9--11-11-11-11-11-11-11-11--6-6-6-6-6-6-6-6|
A|-5-5-5-5-5-5-5-5--7-7-7-7-7-7-7-7--9--9--9--9--9--9--9--9---4-4-4-4-4-4-4-4|
D|---------------------------------------------------------------------------|

e|---------------------------------------------------------------------------|
B|---------------------------------------------------------------------------|
G|-7-7-7-7-7-7-7-7--7-7-7-7-7-7-7-7--9-9-9-9-9-9-9-9--10--10--10-------------|
D|-7-7-7-7-7-7-7-7--7-7-7-7-7-7-7-7--9-9-9-9-9-9-9-9--10--10--10-------------|
A|-5-5-5-5-5-5-5-7--5-5-5-5-5-5-5-5--7-7-7-7-7-7-7-7--8---8---8--------------|
D|---------------------------------------------------------------------------|


[Repeat second half of Intro]


[Verse 2]

Guitar 1 (lead) & Guitar 2 (Rhythm)
e|---------------------------------------------------------------------------|
B|---------------------------------------------------------------------------|
G|------------6--6-6----7--7-7-----------------------------------------------|
D|--4--4-4----6--6-6----7--7-7----7--7-7-------------------------------------|
A|--4--4-4----4--4-4----5--5-5----7--7-7-------------------------------------|
D|--4--4-4------------------------7--7-7-------------------------------------|


e|---------------------------------------------------------------------------|
B|---------------------------------------------------------------------------|
G|------------6--6-6----7--7-7-----------------------------------------------|
D|--4--4-4----6--6-6----7--7-7----7--7-7-------------------------------------|
A|--4--4-4----4--4-4----5--5-5----7--7-7--------(pick slide)-----------------|
D|--4--4-4------------------------7--7-7--------(pick slide)-----------------|

 
e|---------------------------------------------------------------------------|
B|---------------------------------------------------------------------------|
G|--------------------6--6-6-6-6-6-6----7--7-7-7-7-7-7-----------------------|
D|--4--4-4-4-4-4-4----6--6-6-6-6-6-6----7--7-7-7-7-7-7----7--7-7-7-7-7-7-----|
A|--4--4-4-4-4-4-4----4--4-4-4-4-4-4----5--5-5-5-5-5-5----7--7-7-7-7-7-7-----|
D|--4--4-4-4-4-4-4----------------------------------------7--7-7-7-7-7-7-----|
[pm        .......           .......           .......           .......]


e|---------------------------------------------------------------------------|
B|---------------------------------------------------------------------------|
G|--------------------6--6-6-6-6-6-6---7-7--9-9------------------------------|
D|--4--4-4-4-4-4-4----6--6-6-6-6-6-6---7-7--9-9----------7-7-7-7-7-7-7-7-----|
A|--4--4-4-4-4-4-4----4--4-4-4-4-4-4---5-5--9-9----------7-7-7-7-7-7-7-7-----|
D|--4--4-4-4-4-4-4---------------------------------------7-7-7-7-7-7-7-7-----|
[pm        .......           .......]


[Pre-Chorus 2]

Guitar 1 (lead)
e|-----12-----12-------10----------------------------------------------------|
B|---------------------------------------------------------------------------|
G|---------------------------------------------------------------------------|
D|---------------------------4-4-4-4-4-4-4-4--7-7-7-7-7-7-7-7----------------|
A|---------------------------4-4-4-4-4-4-4-4--7-7-7-7-7-7-7-7----------------|
D|---------------------------4-4-4-4-4-4-4-4--7-7-7-7-7-7-7-7----------------|

e|----------15-----------15--------------------------------------------------|
B|-------15-----------15-----------------------------------------------------|
G|----11-----------13----------------9-9-9-9-9-9-9-9--6-6-6-6\---------------|
D|-12-----------14-------------------9-9-9-9-9-9-9-9--6-6-6-6\---------------|
A|-----------------------------------7-7-7-7-7 7-7-7--4-4-4-4\---------------|
D|---------------------------------------------------------------------------|


Guitar 2 (Rhythm)
e|---------------------------------------------------------------------------|
B|---------------------------------------------------------------------------|
G|-9-9----9-9----10-10-------------------------------------------------------|
D|-9-9----9-9----10-10----4-4-4-4-4-4-4-4--7-7-7-7-7-7-7-7-------------------|
A|-7-7----7-7----8--8-----4-4-4-4-4-4-4-4--7-7-7-7-7-7-7-7-------------------|
D|------------------------4-4-4-4-4-4-4-4--7-7-7-7-7-7-7-7-------------------|

e|---------------------------------------------------------------------------|
B|---------------------------------------------------------------------------|
G|-7-7-7-7-7-7-7-7--8-8-8-8-8-8-8-8--9-9-9-9-9-9-9-9--6-6-6-6\---------------|
D|-7-7-7-7-7-7-7-7--6-6-6-6-6-6-6-6--9-9-9-9-9-9-9-9--6-6-6-6\---------------|
A|-5-5-5-5-5-5-5-5--6-6-6-6-6-6-6-6--7-7-7-7-7 7-7-7--4-4-4-4\---------------|
D|---------------------------------------------------------------------------|



[Repeat Chorus]


[Solo]

Guitar 1 (lead)
e|---------------------------------------------------------------------------|
B|-14-14-14\9-9/10-10-10-10-10--12-12-12\10-10\5-5-5-5-5---------------------|
G|-x--x--x-\x-x/x--x--x--x--x---x--x--x-\x--x-\x-x-x-x-x---------------------|
D|-11-11-11\6-6/7--7--7--7--7---9--9--9-\6--6-\2-2-2-2-2---------------------|
A|---------------------------------------------------------------------------|
D|---------------------------------------------------------------------------|

e|-----------12------------------------------12b14---------------------------|
B|-10---12--------12---12--12b14-12b14r12-11---------------------------------|
G|----9----9----9----9-------------------------------------------------------|
D|---------------------------------------------------------------------------|
A|---------------------------------------------------------------------------|
D|---------------------------------------------------------------------------|

Guitar 2 (Rhythm)
e|---------------------------------------------------------------------------|
B|---------------------------------------------------------------------------|
G|-7-7-7-7-7-7-7-7--7-7-7-7-7-7-7-7------------------------------------------|
D|-7-7-7-7-7-7-7-7--7-7-7-7-7-7-7-7--7-7-7-7-7-7-7-7--7-7-7-7-7-7-7-7--------|
A|-5-5-5-5-5-5-5-5--5-5-5-5-5-5-5-5--7-7-7-7-7-7-7-7--7-7-7-7-7-7-7-7--------|
D|-----------------------------------7-7-7-7-7-7-7-7--7-7-7-7-7-7-7-7--------|

e|-----------------------------------------------------------------------------------|
B|-----------------------------------------------------------------------------------|
G|-9-9-9-9-9-9-9-9--9-9-9-9-9-9-9-9--11-11-11-11-11-11-11-11--11-11-11-11-11-11-11-11|
D|-9-9-9-9-9-9-9-9--9-9-9-9-9-9-9-9--11-11-11-11-11-11-11-11--11-11-11-11-11-11-11-11|
A|-7-7-7-7-7-7-7-7--7-7-7-7-7-7-7-7--9--9--9--9--9--9--9--9---9--9--9--9--9--9--9--9-|
D|-----------------------------------------------------------------------------------|


[Bridge]

Guitar 1 (lead) & Guitar 2 (Rhythm)
e|---------------------------------------------------------------------------|
B|---------------------------------------------------------------------------|
G|-7-7-7-7-7-7-7-7--7-7-7-7-7-7-7-7------------------------------------------|
D|-7-7-7-7-7-7-7-7--7-7-7-7-7-7-7-7--7-7-7-7-7-7-7-7--7-7-7-7-7-7-7-7--------|
A|-5-5-5-5-5-5-5-5--5-5-5-5-5-5-5-5--7-7-7-7-7-7-7-7--7-7-7-7-7-7-7-7--------|
D|-----------------------------------7-7-7-7-7-7-7-7--7-7-7-7-7-7-7-7--------|

e|---------------------------------------------------------------------------|
B|---------------------------------------------------------------------------|
G|-----------------------------------------------------11--11----10--10------|
D|--5-5-5-5-5-5-5-5--5-5-5-5-5-5-5-5--4-4-4-4-4-4-4-4--11--11----10--10------|
A|--5-5-5-5-5-5-5-5--5-5-5-5-5-5-5-5--4-4-4-4-4-4-4-4--9---9-----8---8-------|
D|--5-5-5-5-5-5-5-5--5-5-5-5-5-5-5-5--4-4-4-4-4-4-4-4------------------------|

e|---------------------------------------------------------------------------|
B|---------------------------------------------------------------------------|
G|-7-7-7-7-7-7-7-7--7-7-7-7-7-7-7-7------------------------------------------|
D|-7-7-7-7-7-7-7-7--7-7-7-7-7-7-7-7--7-7-7-7-7-7-7-7--7-7-7-7-7-7-7-7--------|
A|-5-5-5-5-5-5-5-5--5-5-5-5-5-5-5-5--7-7-7-7-7-7-7-7--7-7-7-7-7-7-7-7--------|
D|-----------------------------------7-7-7-7-7-7-7-7--7-7-7-7-7-7-7-7--------|

e|----------------------------------------------------------------------------------|
B|----------------------------------------------------------------------------------|
G|-11-11-11-11-11-11-11-11--11-11-11-11-11-11-11-11--11-11-11-10-10-10-9-9-9-8-8-8--|
D|-11-11-11-11-11-11-11-11--11-11-11-11-11-11-11-11--11-11-11-10-10-10-9-9-9-8-8-8--|
A|-9--9--9--9--9--9--9--9---9--9--9--9--9--9--9--9---9--9--9--8--8--8--7-7-7-6-6-6--|
D|----------------------------------------------------------------------------------|

e|-----------------------------------|
B|-7-7-7-7--7--6-6-------------------|
G|-6-6-6-6--6--5-5-------------------|
D|-4-4-4-4--4--3-3-------------------|
A|-----------------------------------|
D|-----------------------------------|


[Final Chorus]

Guitar 1 (lead)
e|--12\-----12\-----12\-----9-----15-----12\-----12\------9\-----------------|
B|---------------------------------------------------------------------------|
G|---------------------------------------------------------------------------|
D|---------------------------------------------------------------------------|
A|---------------------------------------------------------------------------|
D|---------------------------------------------------------------------------|


Guitar 1 (lead) & Guitar 2 (Rhythm)
e|------------------------|
B|------------------------|
G|-6-6--6--6--6-----------|
D|-6-6--6--6--6-----------|
A|-4-4--4--4--4-----------|
D|------------------------|

e|---------------------------------------------------------------------------|
B|---------------------------------------------------------------------------|
G|-7-7-7-7-7-7-7-7--9-9-9-9-9-9-9-9--11-11-11-11-11-11-11-11--6-6-6-6-6-6-6-6|
D|-7-7-7-7-7-7-7-7--9-9-9-9-9-9-9-9--11-11-11-11-11-11-11-11--6-6-6-6-6-6-6-6|
A|-5-5-5-5-5-5-5-5--7-7-7-7-7-7-7-7--9--9--9--9--9--9--9--9---4-4-4-4-4-4-4-4|
D|---------------------------------------------------------------------------|

e|-----------------------------------------------------------------------------------|
B|-----------------------------------------------------------------------------------|
G|-7-7-7-7-7-7-7-7--9-9-9-9-9-9-9-9--11-11-11-11-11-11-11-11--12-12-12-12-12-12-12-12|
D|-7-7-7-7-7-7-7-7--9-9-9-9-9-9-9-9--11-11-11-11-11-11-11-11--12-12-12-12-12-12-12-12|
A|-5-5-5-5-5-5-5-5--7-7-7-7-7-7-7-7--9--9--9--9--9--9--9--9---10-10-10-10-10-10-10-10|
D|-----------------------------------------------------------------------------------|

e|---------------------------------------------------------------------------|
B|---------------------------------------------------------------------------|
G|-7-7-7-7-7-7-7-7--9-9-9-9-9-9-9-9--11-11-11-11-11-11-11-11--6-6-6-6-6-6-6-6|
D|-7-7-7-7-7-7-7-7--9-9-9-9-9-9-9-9--11-11-11-11-11-11-11-11--6-6-6-6-6-6-6-6|
A|-5-5-5-5-5-5-5-5--7-7-7-7-7-7-7-7--9--9--9--9--9--9--9--9---4-4-4-4-4-4-4-4|
D|---------------------------------------------------------------------------|

e|---------------------------------------------------------------------------|
B|---------------------------------------------------------------------------|
G|-7-7-7-7-7-7-7-7--7-7-7-7-7-7-7-7--9-9-9-9-9-9-9-9--10--10--10-------------|
D|-7-7-7-7-7-7-7-7--7-7-7-7-7-7-7-7--9-9-9-9-9-9-9-9--10--10--10-------------|
A|-5-5-5-5-5-5-5-7--5-5-5-5-5-5-5-5--7-7-7-7-7-7-7-7--8---8---8--------------|
D|---------------------------------------------------------------------------|

[Outro]

Guitar 1 (lead)
e|---------------------------------------------------------------------------|
B|---------------------------------------------------------------------------|
G|----14-16-16b18r16-14----16b18r16-14-----16b18r16-14-----------------------|
D|-16------------------16-------------16--------------16-14-16--14-15--------|
A|---------------------------------------------------------------------------|
D|---------------------------------------------------------------------------|

e|---------------------------------------------------------------------------|
B|-17-15-14------------------------------------------------------------------|
G|----------16-14-13-14-16-16b18r16-14---16b18r16-14-------------14----------|
D|------------------------------------16------------16--14-15-16----16-------|
A|---------------------------------------------------------------------------|
D|---------------------------------------------------------------------------|

Guitar 2 (Rhythm)
e|---------------------------------------------------------------------------|
B|---------------------------------------------------------------------------|
G|-7-7-7-7-7-7--7/9-9-9-9-9-9-9-9--11-11-11-11-11-11-11-11--6-6-6-6-6-6------|
D|-7-7-7-7-7-7--7/9-9-9-9-9-9-9-9--11-11-11-11-11-11-11-11--6-6-6-6-6-6------|
A|-5-5-5-5-5-5--5/7-7-7-7-7-7-7-7--9--9--9--9--9--9--9--9---4-4-4-4-4-4------|
D|---------------------------------------------------------------------------|

e|---------------------------------------------------------------------------|
B|---------------------------------------------------------------------------|
G|-7-7-7-7-7-7--7/9-9-9-9-9-9-9-9--------------------------------------------|
D|-7-7-7-7-7-7--7/9-9-9-9-9-9-9-9--8-8--8-8--8-8--8-8------------------------|
A|-5-5-5-5-5-5--5/7-7-7-7-7-7-7-7--8-8--8-8--8-8--8-8------------------------|
D|---------------------------------8-8--8-8--8-8--8-8------------------------|

Legend: 
/    = slide up
\    = slide down
~    = virbato
.    = palm mute
b    = bend string
r    = release bend
(x)  = natural harmonic
*    = artificial harmonic
comments
We did not receive enough feedback on this tab! Please rate:
print report bad tab
1 2 3 4 5
I want to post or [tab]
guest
You may want to rate the tab now too:
select rating
Please do not post tabs as comments. Select "correction" instead!