Oops, an error
Loading. Please wait.

World Long Gone Tab

ver1
ver1

Intro

Whole song

Interactive

More versions @911Tabs.com
33,061 views 24 this week
8 commentsread comments
1 2 3 4 5
excellent!
x 12
Autoscroll
+/-
esc
set tempo
stop
Contributor
Tuning
C# G# C# F# A# D#
WARNING: You are trying to view
                                    content from Ultimate-Guitar.com
                                    in an unauthorized application,
                                    which is prohibited.

                                    Please use an official Ultimate
                                    Guitar Tabs application for iPhone,
                                    iPad or Android to access legitimate
                                    chords, guitar, bass, and drum tabs
                                    from Ultimate-Guitar.com database.

                                    Type "ultimate guitar tabs" in Apple
                                    App Store's or Android Market's
                                    search to find the application.
==========================================================================================
                       Scars on Broadway - World long gone
==========================================================================================
Tabbed by : Zurborg, Marvin
email : cyborgdestroyer@web.de

Tuning : C#G#C#f#a#d#

This is the official Album Version



Intro:
                                                                                   4x
D#|-----------------------||---------------------------|---------------------------||
A#|-----------------------||---------------------------|---------------------------||
F#|-----------------------||*--------------------------|--------------------------*||
C#|-----------------------||*--------------------------|--------------------------*||
G#|--------------------0--||---5-----------------------|-----------------------0---||
C#|-----------------------||------7--8--5--7--3--5--2--|--3--0--2--3--5--3--2------||


Verse:
                                   4x                                 4x
||---------------------------------||---------------------------------||
||---------------------------------||---------------------------------||
||*--7---7---7---7---7---7---7----*||*--5---5---5---5---5---5---5----*||
||*--7---7---7---7---7---7---7----*||*--5---5---5---5---5---5---5----*||
||---5---5---5---5---5---5---5-----||---3---3---3---3---3---3---3-----||
||---------------------------------||---------------------------------||
repeat 2x


PreChorus:

||---------------------------------|---------------------------------|
||---------------------------------|---------------------------------|
||---------------------------------|---------------------------------|
||---------------------------------|---------------------------------|
||---5---5---5---5---5---5---5---5-|---5---5---5---5---5---5---5---5-|
||---------------------------------|---------------------------------|
PM__________________________________________________________________


|---------------------------------|---------------------------------|
|---------------------------------|---------------------------------|
|---------------------------------|---------------------------------|
|---------------------------------|---------------------------------|
|---3---3---3---3---3---3---3---3-|---3---3---3---3---3---3---3---3-|
|---------------------------------|---------------------------------|
PM__________________________________________________________________


|---------------------------------|---------------------------------|
|---------------------------------|---------------------------------|
|---------------------------------|---------------------------------|
|---------------------------------|---------------------------------|
|---5---5---5---5---5---5---5---5-|---5---5---5---5---5---5---5---5-|
|---------------------------------|---------------------------------|
PM__________________________________________________________________


|---------------------------------|---------------------------------||
|---------------------------------|---------------------------------||
|---------------------------------|---------------------------------||
|---------------------------------|---5---5---5---5---5---5---5---5-||
|---3---3---3---3---3---3---3---3-|---3---3---3---3---3---3---3---3-||
|---------------------------------|---------------------------------||
PM________________________________



Chorus:

||---------------------|---------------------|
||---------------------|---------------------|
||--3------3----3-3----|--3------3----3-3----|
||--3------3----3-3----|--3------3----3-3----|
||--1------------------|--1------------------|
||---------------------|---------------------|

|---------------------|---------------------|
|---------------------|---------------------|
|---------------------|---------------------|
|--0------7----7-7----|--0------7----7-7----|
|--0------5----5-5----|--0------5----5-5----|
|--0------------------|--0------------------|

|---------------------|---------------------|
|---------------------|---------------------|
|--5------5----5-5----|--5------5----5-5----|
|--5------5----5-5----|--5------5----5-5----|
|--3------------------|--3------------------|
|---------------------|---------------------|


|---------------------|---------------------||
|---------------------|---------------------||
|--3------3----3-3----|--2------2----2-2----||
|--3------3----3-3----|--2------2----2-2----||
|--1------------------|--0----------------0-||
|---------------------|---------------------||



Intro Riff:                                              4x
||---------------------------|---------------------------||
||---------------------------|---------------------------||
||*--------------------------|--------------------------*||
||*--------------------------|--------------------------*||
||---5-----------------------|-----------------------0---||
||------7--8--5--7--3--5--2--|--3--0--2--3--5--3--2------||




Verse:
                                   4x                                 4x
||---------------------------------||---------------------------------||
||---------------------------------||---------------------------------||
||*--7---7---7---7---7---7---7----*||*--5---5---5---5---5---5---5----*||
||*--7---7---7---7---7---7---7----*||*--5---5---5---5---5---5---5----*||
||---5---5---5---5---5---5---5-----||---3---3---3---3---3---3---3-----||
||---------------------------------||---------------------------------||
repeat 2x




PreChorus:

||---------------------------------|---------------------------------|
||---------------------------------|---------------------------------|
||---------------------------------|---------------------------------|
||---------------------------------|---------------------------------|
||---5---5---5---5---5---5---5---5-|---5---5---5---5---5---5---5---5-|
||---------------------------------|---------------------------------|
PM__________________________________________________________________


|---------------------------------|---------------------------------|
|---------------------------------|---------------------------------|
|---------------------------------|---------------------------------|
|---------------------------------|---------------------------------|
|---3---3---3---3---3---3---3---3-|---3---3---3---3---3---3---3---3-|
|---------------------------------|---------------------------------|
PM__________________________________________________________________


|---------------------------------|---------------------------------|
|---------------------------------|---------------------------------|
|---------------------------------|---------------------------------|
|---------------------------------|---------------------------------|
|---5---5---5---5---5---5---5---5-|---5---5---5---5---5---5---5---5-|
|---------------------------------|---------------------------------|
PM__________________________________________________________________


|---------------------------------|---------------------------------||
|---------------------------------|---------------------------------||
|---------------------------------|---------------------------------||
|---------------------------------|---5---5---5---5---5---5---5---5-||
|---3---3---3---3---3---3---3---3-|---3---3---3---3---3---3---3---3-||
|---------------------------------|---------------------------------||
PM________________________________



Chorus:

||---------------------|---------------------|
||---------------------|---------------------|
||--3------3----3-3----|--3------3----3-3----|
||--3------3----3-3----|--3------3----3-3----|
||--1------------------|--1------------------|
||---------------------|---------------------|

|---------------------|---------------------|
|---------------------|---------------------|
|---------------------|---------------------|
|--0------7----7-7----|--0------7----7-7----|
|--0------5----5-5----|--0------5----5-5----|
|--0------------------|--0------------------|

|---------------------|---------------------|
|---------------------|---------------------|
|--5------5----5-5----|--5------5----5-5----|
|--5------5----5-5----|--5------5----5-5----|
|--3------------------|--3------------------|
|---------------------|---------------------|

|---------------------|---------------------|
|---------------------|---------------------|
|--3------3----3-3----|--3------3----3-3----|
|--3------3----3-3----|--3------3----3-3----|
|--1------------------|--1------------------|
|---------------------|---------------------|

|---------------------|---------------------|
|---------------------|---------------------|
|---------------------|---------------------|
|--0------7----7-7----|--0------7----7-7----|
|--0------5----5-5----|--0------5----5-5----|
|--0------------------|--0------------------|

|---------------------|---------------------|
|---------------------|---------------------|
|--5------5----5-5----|--5------5----5-5----|
|--5------5----5-5----|--5------5----5-5----|
|--3------------------|--3------------------|
|---------------------|---------------------|

|---------------------|---------------------||
|---------------------|---------------------||
|--3------3----3-3----|--2------2----2-2----||
|--3------3----3-3----|--2------2----2-2----||
|--1------------------|--0----------------0-||
|---------------------|---------------------||



Inro Riff:
 
Intro Riff:                                              3x
||---------------------------|---------------------------||
||---------------------------|---------------------------||
||*--------------------------|--------------------------*||
||*--------------------------|--------------------------*||
||---5-----------------------|-----------------------0---||
||------7--8--5--7--3--5--2--|--3--0--2--3--5--3--2------|| 
  
||--------------------------|-----------------------------|
||--------------------------|-----------------------------|
||--------------------------|-----------------------------|
||--------------------------|----------------7---------7--|
||--5-----5--7--8--5--7--8--|--10--7--8--10-----8--10-----|
||-----7--------------------|-----------------------------|



|-----------------------------|----------------------------------||
|-----------------------------|----------------------------------||
|-----------------------------|----------------------------------||
|--8------7--8--10--7--8--10--|--12--10--12--14--15--14--12--10--||
|-----10----------------------|----------------------------------||
|-----------------------------|----------------------------------||




PreChorus:

||---------------------------------|---------------------------------|
||---------------------------------|---------------------------------|
||---7-----------------------------|---------------------------------|
||---7---7---7---7---7---7---7---7-|---7---7---7---7---7---7---7---7-|
||---5---5---5---5---5---5---5---5-|---5---5---5---5---5---5---5---5-|
||---------------------------------|---------------------------------|
PM       ____________________________________________________________


|---------------------------------|---------------------------------|
|---------------------------------|---------------------------------|
|---5-----------------------------|---------------------------------|
|---5---5---5---5---5---5---5---5-|---5---5---5---5---5---5---5---5-|
|---3---3---3---3---3---3---3---3-|---3---3---3---3---3---3---3---3-|
|---------------------------------|---------------------------------|
PM      ____________________________________________________________


|---------------------------------|---------------------------------|
|---------------------------------|---------------------------------|
|---7-----------------------------|---------------------------------|
|---7---7---7---7---7---7---7---7-|---7---7---7---7---7---7---7---7-|
|---5---5---5---5---5---5---5---5-|---5---5---5---5---5---5---5---5-|
|---------------------------------|---------------------------------|
PM     ____________________________________________________________


|---------------------------------|---------------------------------||
|---------------------------------|---------------------------------||
|---5-----------------------------|---------------------------------||
|---5---5---5---5---5---5---5---5-|---5---5---5---5---5---5---5---5-||
|---3---3---3---3---3---3---3---3-|---3---3---3---3---3---3---3---3-||
|---------------------------------|---------------------------------||
PM      __________________________



Chorus:

||---------------------|---------------------|
||---------------------|---------------------|
||--3------3----3-3----|--3------3----3-3----|
||--3------3----3-3----|--3------3----3-3----|
||--1------------------|--1------------------|
||---------------------|---------------------|

|---------------------|---------------------|
|---------------------|---------------------|
|---------------------|---------------------|
|--0------7----7-7----|--0------7----7-7----|
|--0------5----5-5----|--0------5----5-5----|
|--0------------------|--0------------------|

|---------------------|---------------------|
|---------------------|---------------------|
|--5------5----5-5----|--5------5----5-5----|
|--5------5----5-5----|--5------5----5-5----|
|--3------------------|--3------------------|
|---------------------|---------------------|

|---------------------|---------------------|
|---------------------|---------------------|
|--3------3----3-3----|--3------3----3-3----|
|--3------3----3-3----|--3------3----3-3----|
|--1------------------|--1------------------|
|---------------------|---------------------|

|---------------------|---------------------|
|---------------------|---------------------|
|---------------------|---------------------|
|--0------7----7-7----|--0------7----7-7----|
|--0------5----5-5----|--0------5----5-5----|
|--0------------------|--0------------------|

|---------------------|---------------------|
|---------------------|---------------------|
|--5------5----5-5----|--5------5----5-5----|
|--5------5----5-5----|--5------5----5-5----|
|--3------------------|--3------------------|
|---------------------|---------------------|

|---------------------|---------------------||
|---------------------|---------------------||
|--3------3----3-3----|--2------2----2-2----||
|--3------3----3-3----|--2------2----2-2----||
|--1------------------|--0----------------0-||
|---------------------|---------------------||





Outro:
                                                         3x
||---------------------------|---------------------------||
||---------------------------|---------------------------||
||*--------------------------|--------------------------*||
||*--------------------------|--------------------------*||
||---5-----------------------|-----------------------0---||
||------7--8--5--7--3--5--2--|--3--0--2--3--5--3--2------|| 
  
||--------------------------|-----------------------------|
||--------------------------|-----------------------------|
||--------------------------|-----------------------------|
||--------------------------|----------------7---------7--|
||--5-----5--7--8--5--7--8--|--10--7--8--10-----8--10-----|
||-----7--------------------|-----------------------------|



|-----------------------------|----------------------------------||
|-----------------------------|----------------------------------||
|-----------------------------|----------------------------------||
|--8------7--8--10--7--8--10--|--12--10--12--14--15--14--12--10--||
|-----10----------------------|----------------------------------||
|-----------------------------|----------------------------------||

||------||
||------||
||------||
||-0----||
||-0----||
||-0----||
comments
print report bad tab
8 comments total. Showing first comments.
0 reply
DartS17 wrote on July 30 2008, 10:54 am

sounds great! keep up the good work

0 reply
horandago wrote on August 16 2008, 04:48 am

5 tar tab!
but the pre-chorus sounds better playing

|-7-/-5-| insted of just the 5 or 3
|-5-/-3-| thats not a slide btw, its just dividing the tab
|---/---|

0 reply
javiero wrote on September 3 2008, 11:25 pm

Nice Tab! Only suggestion (besides the above) would be that an easier way to play the solo-type riff is like this:

||----------------------------------------|
||----------------------------------------|
||----------------------------------------|
||--------------------5-----5-7---5-7-8---|
||----5---5-7-8-5-7-8---7-8-----8---------|
||------7---------------------------------|

|----------------------------------------||
|-----------------------5-6-5------------||
|---------5-----5-7-5-7-------7-5--------||
|---5-7-8---7-8--------------------------||
|----------------------------------------||
|----------------------------------------||

||------||
||------||
||-5----||
||-5----||

I want to post or [tab]
guest
You may want to rate the tab now too:
select rating
Please do not post tabs as comments. Select "correction" instead!