Oops, an error
Loading. Please wait.

Animal Magnetism Tab

ver1
ver1

Album

Whole song

More versions @911Tabs.com
9,308 views 16 this week
no commentswrite comment
1 2 3 4 5
worth learning
x 2
Autoscroll
+/-
esc
set tempo
stop
Contributor
WARNING: You are trying to view
                                    content from Ultimate-Guitar.com
                                    in an unauthorized application,
                                    which is prohibited.

                                    Please use an official Ultimate
                                    Guitar Tabs application for iPhone,
                                    iPad or Android to access legitimate
                                    chords, guitar, bass, and drum tabs
                                    from Ultimate-Guitar.com database.

                                    Type "ultimate guitar tabs" in Apple
                                    App Store's or Android Market's
                                    search to find the application.
I'm One Of The Scorpions Fans.My Name Is Hassan Nosrat Abadi,But It Isn't Important Beacause
                           
              *****************************************************************            
              *I'm One Of The Scorpions Fans And This Is Very Important For Me*                           
              *****************************************************************       

      This Is The Full "Animal Magnetism" Album(1980) Tabs Of The Best Group "Scorpions"          
                               Of Hard Roc k& Heavy Metal Music                                  
 
           The "Animal Magnetism" Album Is One Of The best Album Of The "Scorpions"                
          With Great Songs Like:Make It Real,Lady Starlight,The Zoo,Animal Magnetism               
                           

                           ****************************************
                           *I'm Sure That Only Scorpions Can Do It*                           
                           ****************************************

                                
Sound Track Listing:

1-Make It Real
2-Don't Make No Promises (Your Body Can't Keep) 
3-Hold Me Tight 
4-Twentieth Century Man 
5-Lady Starlight 
6-Falling In Love 
7-Only A Man 
8-The Zoo 
9-Animal Magnetism
10-Hey You

                                         
Song:"Make It Real"
Artist:"Scorpions"
Album="Animal Magnetism"
Lyricist="Herman Rarebell"
Composer="Rudolf Schenker"
Tuning="Regular Tuning"
Transcribed by="Rob Schenk"


Intro (Guitar 1):
------------------------------------
------------------------------------
-9-x-9-x-x-9-x-9--------------------
-9-x-9-x-x-9-x-9--(Continue Pattern)
-7-x-7-x-x-7-x-7--------------------
------------------------------------

Guitar 2
------------------------------------------------------------------
-------(4X-15-15-15-15-)--17-17-17-17-15-15-17-17-17-17-15-15-----
-----------16-16-16-16---16-16-16-16-16-16-16-16-16-16-16-16------
------------------------------------------------------------------
------------------------------------------------------------------
-0-dive-----------------------------------------------------------

-------------------------------
-15/13----------h--------------
-16/14--------0-5-dive---------
--------0-dive-----------------
-------------------------------
-------------------------------

Verse

-----------------------------------------------------------------
-----------------------------------------------------------------
-9-x-9-x-9-x-9-x-9-x-9-x-12-x-12-x-12-x-5-x-5-x-5-x-5-x-5-x-5----
-9-x-9-x-9-x-9-x-9-x-9-x-12-x-12-x-12-x-5-x-5-x-5-x-5-x-5-x-5----
-7-x-7-x-7-x-7-x-7-x-7-x-10-x-10-x-10-x-3-x-3-x-2-x-3-x-3-x-3----
-----------------------------------------------------------------

-----------------------------------------------------------------
-----------------------------------------------------------------
-9-x-9-x-9-x-9-x-9-x-9-x-12-x-12-x-12-x-5-x-5-x-5-x-5-x-5-x-5----
-9-x-9-x-9-x-9-x-9-x-9-x-12-x-12-x-12-x-5-x-5-x-5-x-5-x-5-x-5----
-7-x-7-x-7-x-7-x-7-x-7-x-10-x-10-x-10-x-3-x-3-x-2-x-3-x-3-x-3----
-----------------------------------------------------------------

Prechorus

------------------------------------------------------------
------------------------------------------------------------
-7-x-5-x-5-x-5-x-5-x-5-x-5-x-7-x-5-x-5-x-5-x-5--------------
-7-x-5-x-5-x-5-x-5-x-5-x-5-x-7-x-5-x-5-x-5-x-5--------------
-5-x-3-x-3-x-2-x-3-x-3-x-3-x-5-x-3-x-3-x-3-x-3--------------
------------------------------------------------------------

Chorus

-----------------------------------
-----------------------------------
-9-7------------------------9-7----
-9-7------------------------9-7----Repeat
-7-5-----3-2-0---0----------7-5----
-----0-0-------3---3-2-0-0---------

----------------------------------
----------------------------------
----------------------------------
----------------------------------
-----3-2-0----3-2-0----3-2-0------
-0-0-------3v-------3v--------3b--

Rhythm During Solo

Follow Guitar 1 Intro,Then Prechorus



Song:"Don't Make No Promises (Your Body Can't Keep)"
Artist:"Scorpions"
Album="Animal Magnetism"
Lyricist="Herman Rarebell"
Composer="Matthias Jabs"
Tuning="Default Tuning"
Transcribed by="John-Paul Jalwan"


Intro (Rhythm Guitar) :
Play This Overdrive 4 Times

|-------------------------------------------------------|
|-------------------------------------------------------|
|-7-7--7---------7-7--7---------7-7--7---------10----5--|
|-7-7--7----3----7-7--7----3----7-7--7----3----10----5--|
|-5-5--5--0---0--5-5--5--0---0--5-5--5--0---0---8----3--|
|-------------------------------------------------------|


Verse:

|-----------------------------------------------------------|
|-----------------------------------------------------------|
|--7---------------------5-5-5--7--------------------5-6-7--|
|--7----3--5----5--7-----5-5-5--7---3--5----5--7-----5-6-7--|
|--5----3--5----5--7-----3-3-3--5---3--5----5--7-----3-4-5--|
|-------1--3----3--5----------------1--3----3--5------------|

ooh, I saw this girl walking down the street.....



Chorus:


|--------------------------------------------------------|
|--------------------------------------------------------|
|-10----12----5----7-7-7--------10----12----5-----7-7-7--|
|-10----12----5----7-7-7--------10----12----5-----7-7-7--|
|--8----10----3----5-5-5---------8----10----3-----5-5-5--|
|--------------------------------------------------------|

Oh No Don't Make No Promisses... Oh No Your Body Can't Keep



Solo:
The Solo Is Too Fast, I Couldn't Catch It!! 
But I Got The Rhythm During The Solo, It's The Same Than The Intro:


|-------------------------------------------------------|
|-------------------------------------------------------|
|-7-7--7---------7-7--7---------7-7--7---------10----5--|
|-7-7--7----3----7-7--7----3----7-7--7----3----10----5--|
|-5-5--5--0---0--5-5--5--0---0--5-5--5--0---0---8----3--|
|-------------------------------------------------------|


Song:"Hold Me Tight"
Artist:"Scorpions"
Album="Animal Magnetism"
Lyricist="Klaus Meine, Herman Rarebell"
Composer="Rudolf Schenker"
Tuning="Default Tuning"
Transcribed by="John-Paul Jalwan"


Intro:
 
       Am		      F Am F  Am   Am
Gtr1|----------------------------------------------|
    |-------------------------6-5-6---5------------|
    |--5---5------------------5-5-5---5----5---5---|
    |--7---7-------------------------------7---7---|
    |--7---7-------------------------------7---7---|
    |--5---5-------------------------------5---5---|
    |   					   |
    |					           |
    |						   |
    |						   |
Gtr2|----------------------------------------------|
    |----------------------------------------------|
    |----------2a.h----2a.h------------------------|
    |----------2-------2---------------------------|
    |--------0-------0-----------------------------|
    |----------------------------------------------|




        
       Am                     F Am F  Am   Am
Gtr1|----------------------------------------------|
    |-------------------------6-5-6---5------------|
    |--5---5------------------5-5-5---5----5---5---|
    |--7---7-------------------------------7---7---|
    |--7---7-------------------------------7---7---|
    |--5---5-------------------------------5---5---|
    |   					   |
    |					           |
    |						   |
    |						   |
Gtr2|----------------------------------------------|
    |-10---8-----------------10-8-10---8---6-------|
    |--9---7------------------9-7--9---7---5-------|
    |----------------------------------------------|
    |----------------------------------------------|
    |----------------------------------------------|





Verse:

        Am                    F Am F  Am
Gtr1|----------------------------------------------|
    |-------------------------6-5-6---5------------|
    |--5---5------------------5-5-5---5----5---5---|
    |--7---7-------------------------------7---7---|
    |--7---7-------------------------------7---7---|
    |--5---5-------------------------------5---5---|
  
She's the one...




Chorus:

Play Powerful Chords (Overdrive)

A5   D5        F5         A5
Alright Don't Want Me To Stay
A5   D5    F5       A5
Alright Have It Your Way
A5   D5    F5       A5
Alright I'm Leaving Tonight
A5   D5  F5                         A5
Alright Woman, I'll Get Out Of Your Sight 




Solo:

|--19v----15-----------------------------------12-15p12-----------|
|-------------17-15b(1/2)-------------------------------15-15b----|
|-----------------------------------------------------------------|
|--------------------------(3-2-3-2-3)a.h-------------------------|
|-----------------------------------------------------------------|
|----------------------------------------3--5---------------------|



|--15b+a.h-(4 times)--------------|
|---------------------------------|
|----------------------7b--5b-----|
|---------------------------------|
|---------------------------------|
|---------------------------------|




Chorus:

A5   D5        F5         A5
Alright Don't Want Me To Stay
A5   D5    F5       A5
Alright Have It Your Way
A5   D5    F5       A5
Alright I'm Leaving Tonight
A5   D5  F5                         A5
Alright Woman, I'll Get Out Of Your Sight 
          


Song:"Twentieth Century Man"
Artist:"Scorpions"
Album="Animal Magnetism"
Lyricist="Klaus Meine"
Composer="Rudolf Schenker"
Tuning="Default Tuning"
Transcribed by="John-Paul Jalwan"                           


Intro: A5, E5, D5, E5, D5 
       D5, E5, D5, E5, D5 

Verse:

D5  E5                    E5 D5 E5 D5 
In the jungle of these times
D5  E5                    E5 D5 E5 D5 
Honest love's so hard to find
C5      D5   C5  D5
In the world of video
C5       D5      C5     E5
Computers tell you what to do
D5  E5                    E5 D5 E5 D5 
The world's devoted to the Dollar sign 
D5  E5                    E5 D5 E5 D5 
Remote-controlled and on the line
C5      D5   C5  D5
Plug in man on the rack
C5       D5      C5     E5
Waiting for a heart attack
D5  E5             E5 D5 E5 D5 
And no chance to die 


Chorus:

G5 A5     E5
No more space for love
G5 A5          E5
The world gets really tough
G5 A5     E5
Can't you see the end
G5 A5     E5
Twentieth Century Man? 


Verse:

In the jungle of these times
There's nothing left for them to buy
They look for God on the screen
They've got even dream-machines
They are mesmerized 

Chorus:

No more space for love
The world gets really tough
Can't you see the end
Twentieth Century Man? 

No more space for love
The world gets really tough
Can't you see the end
Twentieth Century Man? 




Solo:

|------12---------17b-15--|------12----------------------|-----12-------17b-15-|
|--15b----15--12----------|--15b----15--12---------------|-15b----15-12--------|
|-------------------------|-----------------14b12-----|---------------------|
|-------------------------|--------------------------14--|---------------------|
|-------------------------|------------------------------|---------------------|
|-------------------------|------------------------------|---------------------|


|------12---------------------------------|------------------------------------|
|-15b-----15-12---------------------------|-------------------10-------11b-----|
|---------------14b12------------------|--12b-12b--9h11h12----12-11---------|
|------------------------14-12-9----------|------------------------------------|
|--------------------------------12-10----|------------------------------------|
|--------------------------------------12-|------------------------------------|


|-15b--15-14-15-17-15-14-------|--------------------------------------|
|------------------------15----|----------12-12-15-12-15b-------------|
|---------------------------14-|--14b-14b-----------------------------|
|------------------------------|--------------------------------------|
|------------------------------|--------------------------------------|
|------------------------------|--------------------------------------|


		fast
|................................................................................|
|										 |
|-15-15-19-17-15----17-15-------15-----------------------------------------------|
|----------------19-------19-17-----19-17-15--17-15-13-12-12-10------------------|
|---------------------------------------------------------------12-10------------|
|--------------------------------------------------------------------10-9--------|
|-------------------------------------------------------------------------12-10--|
|--------------------------------------------------------------------------------|


                                            Tabs
           **********************************************************************  

Song:"Lady Starlight"
Artist:"Scorpions"
Album="Animal Magnetism"
Lyricist="Klaus Meine"
Composer="Rudolf Schenker"
Tuning="Regular Tuning"


Intro

e---5-------5-----5---5-----3---------5-----5--5--5--
B-----7-------7----7----------3---------5----5--5--5-
G-------6-------6---6-----------4---------6---6--6---
D-0-------0---------------5---------7----------------
A----------------------------------------------------
E----------------------------------------------------

Verse
e---5--5-------5--5-------3--3------5--5--5--5--5-
B----7--7-------7--7-------3--3------5--5--5--5--5
G-----6--6-------6----------4--4------6--6--6--6--
D-0----------0-----------5---------7--------------
A-------------------------------------------------
E-------------------------------------------------

Chorus #1
Strum G Bm G A, Followed By Verse Picking

Chorus #2 And Chorus #3
Strum G Bm G A D C D C D C D C

Chords:  Dmaj7 G  A  C  D  Bm
e        5     3  0  3  5  2 
b        7     3  2  5  7  3
g        6     4  2  5  7  4 
d        7     5  2  5  7  4 
a        5     5  0  3  5  2
e        0     3  x  x  x  x


Solo:

e|--------------------------------------------------|
b|10~-10-11-13--------------10~-10-11-13------------|
g|-------------10~-12-12^r~--------------10~-12^r~--|
d|--------------------------------------------------|
a|--------------------------------------------------|
e|--------------------------------------------------|

e|-----------------------------------------------------|
b|------------14^-14^r--------------14-----------------|
g|13\14-15-16----------16-14\15~-15----15^r-13-15------|
d|-------------------------------------------------14~/|
a|-----------------------------------------------------|
e|-----------------------------------------------------|

e|-----------------------------------------|
b|----13-12--------------------------------|
g|\12-------12~-13-12-14^r-14-13-12-10-12~/|
d|-----------------------------------------|
a|-----------------------------------------|
e|-----------------------------------------|

e|--------------------------------------------------|
b|10~-10-11-13--------------10~-10-11-13------------|
g|-------------10~-12-12^r~--------------10~-12^r~--|
d|--------------------------------------------------|
a|--------------------------------------------------|
e|--------------------------------------------------|

e|------12---------------------17^-17-15-14-15-14----------|
b|14-15----15-14-12-12h14p12~/--------------------15----15^|
g|---------------------------------------------------14----|
d|---------------------------------------------------------|
a|---------------------------------------------------------|
e|---------------------------------------------------------|

e|--------------14-15-17-15p14-14h15p14/--------------|
b|15^-17-14-15^--------------------------9-10-11-12-11|
g|----------------------------------------------------|
d|----------------------------------------------------|
a|----------------------------------------------------|
e|----------------------------------------------------|

e|----------------------------------------------------|
b|9-10-11-12-11--9-10-11-12-11--10-11-10-9-10-9-8-9-8-|
g|----------------------------------------------------|
d|----------------------------------------------------|
a|----------------------------------------------------|
e|----------------------------------------------------|

e|---------------------------------------------------------|
b|7-8-7h8p7-5-7-6^~-6^~-8-5-6^-----------------------------|
g|-----------------------------6-7-6h7p6-5-6-7-6h7p6-5-6-7^|
d|---------------------------------------------------------|
a|---------------------------------------------------------|
e|---------------------------------------------------------|

e|--------------------------------------------------------|
b|--------------9-10-11-12-11-12-11-11~-11-10-9-10^~------|
g|6-7-----------------------------------------------------|
d|----5-4---4~/-------------------------------------------|
a|--------5-----------------------------------------------|
e|--------------------------------------------------------|

e|17^-17-15-14-15-14---------------------------------------|
b|-------------------15----15^~-9-10-12-10-9-9h10p9-8-9-8-8^~|
g|----------------------14---------------------------------|
d|---------------------------------------------------------|
a|---------------------------------------------------------|
e|---------------------------------------------------------|

e|----------------------------------------------------|
b|------11-10-------11-10-------11-10-------11-10--------|
g|11-11-------11-11-------11-11-------11-11-------11-----|
d|----------------------------------------------------|
a|----------------------------------------------------|
e|----------------------------------------------------|f# a# a

e|--------------------------------------------------------------------------|
b|---11-10-------11-10-------11-10-------11-10-9-10-11^---------------------|
g|11-------11-11-------11-11-------11-11------------------------------------|
d|--------------------------------------------------------------------------|
a|--------------------------------------------------------------------------|
e|--------------------------------------------------------------------------|

e|------------------------------------------------------|
b|11^r-11-9-11-10^--9^r-7-9-8^--8-7---------------------|
g|----------------------------------7-6-----------------|
d|--------------------------------------6-5-------------|
a|------------------------------------------5-4---------|
e|------------------------------------------------------|
					|--pm--|
e|--------------------------------------------------|
b|10~-10-11-13--------------10~-10-11-13------------|
g|-------------10~-12-12^r~--------------10~-12^r~--|
d|--------------------------------------------------|
a|--------------------------------------------------|
e|--------------------------------------------------|



Song:"Falling In Love"
Artist:"Scorpions"
Album="Animal Magnetism"
Lyricist="Herman Rarebell"
Composer="Herman Rarebell"
Tuning="Regular Tuning"
Transcribed by="Emanuel Henrysson"


Comments:

1-AS USUAL: LISTEN TO THE RECORD FOR TIMING!!!!!!!!!!
IF YOU WANT TO ADD SOME OWN STUFF- DO IT!!!

2-IF YOU HAVE THE SOLO- mail ME !!!!!
Does anyone have the singel version When You Came Into My Life
in MP3 format?  In case: MAIL ME!!!!  (the best song for the moment)


3-THIS SONG IS A VERY GOOD SONG BY THE BEST BAND FOREVER, THE BAND I MEAN 
IS OFCOURSE  SCORPIONS!!!!!
I SEND MY BEST REGARDS TO Assad Al Mehrizi, WHO I HAVE THE PLEASURE TO HAVE
AS "MAIL FRIEND". -THANK YOU WERY MUCH FOR EVERYTHING!!!!!!!

4-THIS IS MY FIRST SONG I EVER TABBED!!! IF YOU HAVE  ANY CORRECTIONS OR 
SOMETHING- MAIL ME! HERE IS -ALL- MY MAIL ADRESSES:  mo95ehn@mo.vetlanda.se
emanuel_henryson@hotmail.com , emanuel_henrysson@rocketmail.com , PLEASE USE THE FIRST FIRST!!!

5-Tab explanation:
  ~: hold out (don't lay your hand on the stringz)
  #: -Lay your hand on the strings. --LISTEN ON THE RECORD TO FIND OUT--
  /: Slide a bit

E-|---BBBB-----B-----B--------BBBBBBBB----B-----B--------------------------------------------|
B-|---B---B-----B---B---------B-----------B-----B--------------------------------------------|
G-|---B----B-----B-B----B-----B-----------BBBBBBB--------------------------------------------|
D-|---B---B-------B-----------BBBB--------B-----B----Tabbed By Emanuel Henrysson-------------|
A-|---B----B------B-----B-----B-----------B-----B----1998------------------------------------|
E-|---BBBBB-------B-----------BBBBBBBBB---B-----B-----------E-mail:-mo95ehn@mo.vetlanda.se---|
									       

Intro:                                        

E-|---------------------------------------------------------------------------|
B-|--5-5-5-5-4-4-4-4-5-5-5-5-2-2/4---repeat-2-times.--------------------------|
G-|-----------------------------------------------------99~~------------------|
D-|-----------------------------------------------------99~~---repeat-2-times-|
A-|-----------------------------------------------------77~~------------------|
E-|---------------------------------------------------------------------------|
									       
     Main Riff (Verse)                                                         
E-|---------------------------------------------------------------------------|
B-|---------------------------------------------------------------------------|
G-|--9-9--7~--12-#-12----14~--------------------------------------------------|
D-|--9-9--7~--12-#-12----14~--------------------------------------------------|
A-|--7-7--5~--10-#-10----12~--------------------------------------------------|
E-|---------------------------------------------------------------------------|
									       
     Chours                                                                    
E-|---------------------------------------------------------------------------|
B-|---------------------------------------------------------------------------|
G-|--5---------7----9~~~~~~~9~~~~~~~9~~~~~~~~~5----------7----9~~~~~~9~~~~~~~-|
D-|--5---------7----9~~~~~~~7~~~~~~~9~~~~~~~~~5----------7----9~~~~~~9~~~~~~~-|
A-|--3---------5----7~~~~~~~7~~~~~~~7~~~~~~~~~3----------5----7~~~~~~7~~~~~~~-|
E-|---------------------------------------------------------------------------|
     Falling   In   Love   oooh-oooh-oooh     Falling    In   Love   ooh-ooh          
      
E-|---------------------------------------------------------------------------|
B-|---------------------------------------------------------------------------|
G-|--5---------7----9~~~~~~~9~~~~~~~9~~~~~~~~~5----------7----9~~~~~~9~~~~~~~-|
D-|--5---------7----9~~~~~~~7~~~~~~~9~~~~~~~~~5----------7----9~~~~~~9~~~~~~~-|
A-|--3---------5----7~~~~~~~7~~~~~~~7~~~~~~~~~3----------5----7~~~~~~7~~~~~~~-|
E-|---------------------------------------------------------------------------|
     Falling   In   Love   oooh-oooh-oooh     Falling    In   Love    oooh-ooh
      
      
E-|--------------------|
B-|--------------------|
G-|--5-----7-----9~----|
D-|--5-----7-----9~----|
A-|--3-----5-----7~----|
E-|--------------------|
      
     
    Middle Play Before 2-nd Verse                                            
E-|---------------------------------------------------------------------------|
B-|---------------------------------------------------------------------------|
G-|---9-9--7~--12-#-12----14~-------------------------------------------------|
D-|---9-9--7~--12-#-12----14~--------(repeat-3-times)-------------------------|
A-|---7-7--5~--10-#-10----12~-------------------------------------------------|
E-|---------------------------------------------------------------------------|
									       
      Verse 2                                                                  
E-|---------------------------------------------------------------------------|
B-|---------------------------------------------------------------------------|
G-|---9-9--7~--12-#-12----14~-------------------------------------------------|
D-|---9-9--7~--12-#-12----14~-------------------------------------------------|
A-|---7-7--5~--10-#-10----12~-------------------------------------------------|
E-|---------------------------------------------------------------------------|
									       
     Chours                                                                    
E-|---------------------------------------------------------------------------|
B-|---------------------------------------------------------------------------|
G-|--5---------7----9~~~~~~~9~~~~~~~9~~~~~~~~~5----------7----9~~~~~~9~~~~~~~-|
D-|--5---------7----9~~~~~~~7~~~~~~~9~~~~~~~~~5----------7----9~~~~~~9~~~~~~~-|
A-|--3---------5----7~~~~~~~7~~~~~~~7~~~~~~~~~3----------5----7~~~~~~7~~~~~~~-|
E-|---------------------------------------------------------------------------|
     Falling   In   Love   oooh-oooh-oooh     Falling    In   Love   ooh-ooh          
      
E-|---------------------------------------------------------------------------|
B-|---------------------------------------------------------------------------|
G-|--5---------7----9~~~~~~~9~~~~~~~9~~~~~~~~~5----------7----9~~~~~~9~~~~~~~-|
D-|--5---------7----9~~~~~~~7~~~~~~~9~~~~~~~~~5----------7----9~~~~~~9~~~~~~~-|
A-|--3---------5----7~~~~~~~7~~~~~~~7~~~~~~~~~3----------5----7~~~~~~7~~~~~~~-|
E-|---------------------------------------------------------------------------|
     Falling   In   Love   oooh-oooh-oooh     Falling    In   Love    oooh-ooh
      
      
E-|--------------------|
B-|--------------------|
G-|--5-----7-----9~----|
D-|--5-----7-----9~----|
A-|--3-----5-----7~----|
E-|--------------------|
      
   
    Rhythm Under Solo                                                          
E-|---------------------------------------------------------------------------|
B-|---------------------------------------------------------------------------|
G-|--9-9--7~--12-#-12----14~--------------------------------------------------|
D-|--9-9--7~--12-#-12----14~--------------------------------------------------|
A-|--7-7--5~--10-#-10----12~--------------------------------------------------|
E-|---------------------------------------------------------------------------|
									       
     Then The Chours Again                                                     
E-|---------------------------------------------------------------------------|
B-|---------------------------------------------------------------------------|
G-|---5---------7----9~~~~~~~9~~~~~~~9~~~~~~~~~5----------7----9--------------|
D-|---5---------7----9~~~~~~~7~~~~~~~9~~~~~~~~~5----------7----9--------------|
A-|---3---------5----7~~~~~~~7~~~~~~~7~~~~~~~~~3----------5----7--------------|
E-|---------------------------------------------------------------------------|
      Falling   In   Love    ooh-ooh-ooooh     Falling    In   Love            
									       
E-|---------------------------------------------------------------------------|
B-|---------------------------------------------------------------------------|
G-|---5---------7----9~~~~~~~9~~~~~~~9~~~~~~~~~5----------7----9--------------|
D-|---5---------7----9~~~~~~~7~~~~~~~9~~~~~~~~~5----------7----9--------------|
A-|---3---------5----7~~~~~~~7~~~~~~~7~~~~~~~~~3----------5----7--------------|
E-|---------------------------------------------------------------------------|
      Falling   In   Love    oooh-oooh-oooooh  Falling    In   Love            
									       
E-|---------------------------------------------------------------------------|
B-|---------------------------------------------------------------------------|
G-|---5---------7----9~~~~~~~9~~~~~~~9~~~~~~~~~5----------7----9--------------|
D-|---5---------7----9~~~~~~~7~~~~~~~9~~~~~~~~~5----------7----9--------------|
A-|---3---------5----7~~~~~~~7~~~~~~~7~~~~~~~~~3----------5----7--------------|
E-|---------------------------------------------------------------------------|
      Falling   In   Love     oooh-ooh-oooh    Faaallling In   Loovvve         
      
      Fade Out With Intro                                                      
E-|---------------------------------------------------------------------------|
B-|--5-5-5-5-4-4-4-4-5-5-5-5-2-2/4---repeat-2-times.--------------------------|
G-|------------------------------------------------------99~~-----------------|
D-|------------------------------------------------------99~~-----------------|
A-|------------------------------------------------------77~~-----------------|
E-|---------------------------------------------------------------------------|
									       
 The Text:
 Falling In Love
 ----------------
 I look in your eyes, I really think you're fooling me
 You're pretty and nice, it doesn't matter don't you see
 'cause I falling in love, it happens to me every day
 I'm falling in love, love just seems to slip away
 
 I'm falling in love
 Ooh, oooh
 I'm falling in love
 Ooh, oooh
 I'm falling in love
 Ooh, oooh

 Don't tell me your lies, I don't believe a word you say
 You do realize, I move around from day to day
 And I'm falling in love, it happens to me every day
 I'm falling in love, love just seems to slip away
 
 I'm falling in love 
 Ooh, oooh
 I'm falling in love
 Ooh, oooh
 I'm falling in love
 Ooh, oooh
 I'm falling in love									     


                                            Tabs
           **********************************************************************    

Song:"Only A Man"
Artist:"Scorpions"
Album="Animal Magnetism"
Lyricist="Klaus Meine, Herman Rarebell"
Composer="Rudolf Schenker"
Tuning="Default Tuning"
Transcribed by="John-Paul Jalwan"


Comments:

1-my e-mail: jp@cartage.org.lb
	     johnpauljalwan@hotmail.com

2-I got a website about scorpions: http://scorps.itgo.com


1st Voice Only
2nd Overdriven Guitar:

Verse:
|------------------------------------------------------------------------|
|------------------------------------------------------------------------|
|------------------------------------------------------------------------|
|-5--7--8--10--8--7-----5--7--8--10--8--7-----5--7--8--10--8--7--5--7--8-|
|-5--7--8--10--8--7-----5--7--8--10--8--7-----5--7--8--10--8--7--5--7--8-|
|-3--5--6---8--6--5-----3--5--6---8--6--5-----3--5--6---8--6--5--3--5--6-|




Chorus:
|------------------------------------------------------------------|
|------------------------------------------------------------------|
|--7------3--3---10--10---5--5----12--12----7---10-12--------------|
|--7------3--3---10--10---5--5----12--12----7---10-12--------------|
|--5------1--1----8---8---3--3----10--10----5----8-10--------------|
|------------------------------------------------------------------|

Woman, I'm Only A Man...




|----------------------------------------------|
|----------------------------------------------|
|--5------------------------3------------------|
|--5------------------------3------------------|
|--3------------------------1------------------|
|----------------------------------------------|
Now You Know How I Feel,    Nothing Is Real...




Here's The Overdrive During The Solo:

|------------------------------|
|------------------------------|
|----------------7--5----------|
|--5-7-----5-7---7--5----------|
|--5-7-----5-7---5--3----------|
|--3-5-----3-5-----------------|  Etc..


                                            Tabs
           **********************************************************************  

Song:"The Zoo"
Artist:"Scorpions"
Album="Animal Magnetism"
Lyricist="Klaus Meine"
Composer="Rudolf Schenker"
Tuning="Up 1/4 Step"
Transcribed by="ScorpionMan"


Comments:

1-Palm Mute ALL OPEN E (6th String) in the whole song (except in solos)
  this took forever. Hopefully people want this song.
2-Tablature Explanation

  ^ = bend
  r = release bend
  P.M = palm mute
  / or \ = slide
  ~ = vibrato
  P.S. = pick slide
  h = hammer on
  p = pull off
  * = use whammy bar for a -1 bend.
  x = fret mute


Rhy Fig. 1
e----------------------|----------------|----------------------|---------------|
B----------------------|----------------|----------------------|---------------|
G-9-9-9-9-9-9-9--7--9--|-5--4--5--9--7--|-9-9-9-9-9-9-9--7--9--|-5--4--5--7----|
D-9-9-9-9-9-9-9--7--9--|-5--4--5--9--7--|-9-9-9-9-9-9-9--7--9--|-5--4--5--7----|
A-7-7-7-7-7-7-7--5--7--|-3--2--3--7--5--|-7-7-7-7-7-7-7--5--7--|-3--2--3--5----|
E----------------------|----------------|----------------------|---------------|

Fill A
e------------|------------|-------------|-----------|
B------------|------------|-------------|-----------|
G------------|------------|-------------|-----------|
D------------|------x\\\\\|-------------|-----x\\\\\|
A-7~~~~~~~~~~|~~~~~~x\\\\\|-7~~~~~~~~~~~|~~~~~x\\\\\|
E------------|------x\\\\\|-------------|-----x\\\\\|
                    P.S.                      P.S.
Rhy. Fig. 2a			
D-----------------|-----------------|-----------------|-------------10-9--|
A-----------------|-----------------|-----------------|-------------12-10-|
E-0-0-0-0-0-0-0-0-|-0-0-0-0-0-0-0-0-|-0-0-0-0-0-0-0-0-|-0-0-0-0-0-0-------|

Rhy. Fig. 2b
D-------------10-9--|-------------10-9--|---7---5---7---9--|-------------10-9--|
A-------------12-10-|-------------12-10-|---9---7---9---10-|-------------12-10-|
E-0-0-0-0-0-0-------|-0-0-0-0-0-0-------|-0---0---0---0----|-0-0-0-0-0-0-------|

D-------------10-9--|-------------10-9--|---7---5---7---9--|-------------10-9--|
A-------------12-10-|-------------12-10-|---9---7---9---10-|-------------12-10-|
E-0-0-0-0-0-0-------|-0-0-0-0-0-0-------|-0---0---0---0----|-0-0-0-0-0-0-------|

Rhy. Fig. 3
e-------8--7-|-------8--7-|-------8--7-|--5--3--5--7-|
B-------10-8-|-------10-8-|-------10-8-|--7--5--7--8-|
G------------|------------|------------|-------------|

Rhy. Fig. 4
e-------8--7-|-------8--7-|-------8--7-|--5--3--5--3-|
B-------10-8-|-------10-8-|-------10-8-|--7--5--7--5-|
G------------|------------|------------|-------------|

Riff A
D-----------------|-----------------|
A-----------------|-----------------|
E-0-0-0-0-0-0-0-0-|-0-0-0-0-0-0-0-0-|


Riff B
D-----------------|-------------10-9--|
A-3-3-3-3-3-3-3---|-------------12-10-|
E---------------0-|-0-0-0-0-0-0-------|
  P.M.-------------------------]

Riff C
D-----------------|-----------------|
A-3-3-3-3-3-3-3---|-----------------|
E---------------0-|-0-0-0-0-0-0-0-0-|
  P.M.-----------------------------]

Rhy. Fig. 5a
e---------------------|-----------------|---------------|--------------|
B---------------------|-----------------|---------------|--------------|
G-------12------7-----|-----9-----5-----|-12--------7---|--9--9---9-9--|
D----12-----------7---|---9---------5---|-12------7-----|--9--9-9-9-9--|
A-10-------10\5-----5/|/7-----7\3-----3/|/10----5-----5-|--7--7-7-7-7--|
E---------------------|-----------------|---------------|--------------|
                                                               P.M (3rd Chord)

e---------------------|-----------------|
B---------------------|-----------------|
G-------12------7-----|---9-------5-----|
D----12-----------7---|-----9-------5---|
A-10-------10\5-----5/|/7-----7\3-----3\|
E---------------------|-----------------|

Rhy. Fig 5b
e---------------|
B---------------|
G--4------7---9-|
D--4----7---7-9-| Hold E5 Another Measure
A-\2----5-----7-|
E---------------|

Rhy. Fig. 6

Gtr. 2
e---------------------|-------12-------12-------------12-|---------------|-------------|
B-----8---------7-----|----12----12-------13-------13----|---------------|-------------|
G---7---7-----7---7---|-12----------12-------12-12-------|-12--------7---|--9--9--9-9--|
D-9-------9-7-------7-|----------------------------------|-12------7-----|--9--9--9-9--|
A---------------------|----------------------------------|-10----5-----5-|--7--7--7-7--|
E---------------------|----------------------------------|---------------|-------------|
|
|
|
Gtr 1
e---------------------|-----------------|---------------|--------------|
B---------------------|-----------------|---------------|--------------|
G----12---------7-----|---9-------5-----|-12------7-----|-9-9--9--9-9--|
D-------12--------7---|-----9-------5---|-12--------7---|-9-9--9--9-9--|
A-10-------10\5-----5/|/7-----7\3-----3/|/10----5-----5-|-7-7--7--7-7--|
E---------------------|-----------------|---------------|--------------|

Gtr 2
e------------------|----12-------12-----------|
B---8--------7-----|-------12-------13--------|
G-----7--------7---|-12-------12-------12-12--|
D-9-----9--7-----7-|--------------------------|
A------------------|--------------------------|
E------------------|--------------------------|
|
|
|
Gtr 1
e---------------------|-----------------|
B---------------------|-----------------|
G----12---------7-----|---9-------5-----|
D-------12--------7---|-----9-------5---|
A-10-------10\5-----5/|/7-----7\3-----3\|
E---------------------|-----------------|


Rhy. Fill 1a
e---------------|
B---------------|
G---------------|
D----X-X-X-X----|
A----X-X-X-X----|
E-0--X-X-X-X----|

Rhy. Fill 1b
e---22^23----^24-|----------|
B--x-------------|----------|
G-x--------------|----------|
D----------------|----------|
A----------------|----------|
E----------------|-0--------|
                   P.M.

Rhy. Fill 2
e-------------|
B-------------|
G-4----7--7-9-|
D-4----7--7-9-| Hold E5 Another Measure
A\2----5--5-7-|
E-----------0-|

Rhy. Fig. 7
e-------------------|-------------------|-------------------|-------------------|
B-------------------|-------------------|-------------------|-------------------|
G-2-2-2-2-2-2-2-----|-2-2-2-2-2-2-2-----|-2-2-2-2-2-2-2-----|-2-2-2-2-2-2-2-----|
D-2-2-2-2-2-2-2-----|-2-2-2-2-2-2-2-----|-2-2-2-2-2-2-2-----|-2-2-2-2-2-2-2-----|
A-0-0-0-0-0-0-0-3~~~|-0-0-0-0-0-0-0-3~~~|-0-0-0-0-0-0-0-3~~~|-0-0-0-0-0-0-0-3~~~|
E-------------------|-------------------|-------------------|-------------------|



Chorus Riffs (I Forgot To Put 3 Measures Rest At The Beginning So Adjust.)
e---------12------------------|-----------|----------|--------|
B-15^17~~~---15p12------------|-15~~~~~~~~|~~~~~~~~~~|--------|
G-----------------14^16r14p12-|-----------|----------|--------|


e-17^19-17^19r17p15-17-17^19r17p15-|-17^19~~~~17~~~~|~--------|--------|
B----------------------------------|----------------|---------|--------|
G----------------------------------|----------------|---------|--------|


e---------------------------------|--------------|--------|--------|--------|
B-15^17~~~15^17-15-12-------------|--------------|--------|--------|--------|
G---------------------14^16r14p12-|-14^16~~~~~~~~|~~~~----|--------|--------|


Solo 1                 *    *    *    *      *    *    *    *
e------------|------|---------------------|--------------------------|
B-3----------|------|-(3)--(3)--(3)--(3)--|-(3)--(3)--(3)--(3)-------|
G-2^4--------|------|-(2)--(2)--(2)--(2)--|-(2)--(2)--(2)--(2)^4r2p0-|
D------------|-Hold-|---------------------|--------------------------|
A------------|------|---------------------|--------------------------|
E------------|------|---------------------|--------------------------|

e---------|----------|
B---------|----------|
G---------|----------|
D-2-------|----------| Hold Open E 2 More Measures
A---------|----------|
E-----3^4-|-0--------|

Rhy. Fig. 8
e---------|--------|--------|-----------12-------------------|
B---------|--------|--------|--15^17~~~~---15-12-------------|
G---------|--------|--------|--------------------14^16r14p12-|
D---------|--------|--------|--------------------------------|
A---------|--------|--------|--------------------------------|
E---------|--------|--------|--------------------------------|

e--------------|--------|----------|-22~~~~~~22\|
B--------------|--------|-------17-|------------|
G-14^16~~~~~~~~|~~~~~~~~|----------|------------|

Rhy. Fig. 9
e---------------------|-----------------|------------------|
B---------------------|-----------------|------------------|
G----12---------7-----|---9-------5-----|---4-----7--7-7-9-|
D-------12--------7---|-----9-------5---|-----4---7--7-7-9-| Hold E5 Another Measure
A-10-------10\5-----5/|/7-----7\3-----3\|\2-----2-5--5-5-7-|
E---------------------|-----------------|------------------|

Solo 2
e-22^24--22^24--22^24--22^24~~~-|-17^19r17p15-17-17^19r17p15---|-------15^17r15p12-|
B-------------------------------|---------------------------17~|~~--12-------------|
G-------------------------------|------------------------------|-------------------|

e--------12----------------------------------|--------------|--------|
B-15^17~~---15-12----------------------------|--------------|--------|
G-----------------14^16r14p12-14-14^16r14p12-|-14^16~~~~~~~~|~~------|

e-17^19r17p15-17^19-17^20r17p15-|-----------|
B-------------------------------|-17~~~~~~~~|
G-------------------------------|-----------|

Solo 3
e------------|-----------|------------|----------|
B-3----------|-----------|------------|----------|
G-2^4--------|------r2p0-|------------|----------|
D------------|-----------|-0h2--------|----------| Hold E Another Measure
A------------|-----------|------------|----------|
E------------|-----------|------------|-0--------|


e------------|----------|----------------|----------|----------|
B-3----------|---3------|-3--------------|----------|-8--------|
G-2^4--------|---2^4----|-2-p0-----------|----------|-7--------|
D------------|----------|-----2---p0-----|----------|----------|
A------------|----------|----------------|----------|----------|
E------------|----------|------------3^4-|-0--------|----------|


e-------------|------------|----------|------------------------|
B-8/10--------|-8------(8)\|----------|-15---------15----------|
G-7/9---------|-7------(7)\|----------|-14^16------14^16r14p12-|
D-------------|------------|----------|------------------------|
A-------------|------------|----------|------------------------|
E-------------|------------|-0--------|------------------------|


e-------------------------|------------------------|----------------------|-----------------|
B-15-15-------15----------|-15^17~~~~~~15^17r15p12-|----------------------|-12--14^15-------|
G-14-14^16----14^16r14-12-|------------------------|-14^16r14p12----------|-12--14^16-------|
D-------------------------|------------------------|------------14~~~~~14-|--------------14-|
A-------------------------|------------------------|----------------------|-----------------|
E-------------------------|------------------------|----------------------|-----------------|


e---------------|-----------------------|-------------------|
B-12------------|-----------14-12-14-12-|-12~~--------------|
G-12------------|-----------14-12-14-12-|-12~~--------------|
D-----14~~~~~---|-12-14--14-------------|-----14-12-14~~~14-|
A------------14-|-----------------------|-------------------|
E---------------|-----------------------|-------------------|


e-----------------12-------------------|---------------------------------|
B-12-12----15^17-----12-15-15^17r15-12-|-15^17-15^17r15p12---12-15----12-|
G-12-12--------------------------------|------------------14-------14----|
D-------14-----------------------------|---------------------------------|
A--------------------------------------|---------------------------------|
E--------------------------------------|---------------------------------|

----------------------12-------|-------12------------------------------------|
-------------------------15-12-|-15^17~---15^17r15p12---------------14----12-|
-14^16----14^15r14p12----------|----------------------14^15r14p12---14----12-|
-------------------------------|---------------------------------14----14----|
-------------------------------|---------------------------------------------|
-------------------------------|---------------------------------------------|

e------------------|--------------------------------|---------------------------------|
B-----12----15-----|-15-----------------------------|-15--------------15--------------|
G-----12----14^16--|-14^16-----------------12----12-|-14^16--12----12-14^16--12----12-|
D-14---------------|--------14-14----12-14----14----|-----------14--------------14----|
A------------------|--------------14----------------|---------------------------------|
E------------------|--------------------------------|---------------------------------|

SOong Progression

Gtr 1 w/ Rhy. Fig. 1
Gtr 2 tacet
----------------------

Gtr 1 w/ Rhy. Fig. 1
Gtr 2 w/ Fill A
----------------------

Gtr 1 w/ Rhy. Fig. 2a
Gtr 2 (Hold E5 Over Rhy. Fig. 2a)
----------------------------------

Gtr 1 w/ Rhy. Fig. 2b (1 & 7/8 Times)
Gtr 2 w/ Rhy. Fig. 3 (Rest 7 Measures Before Starting)
          Rhy. Fig. 4
-----------------------------------

Gtr 1 W/ Riff A (3 & 1/2 Times)
Gtr 2 Tacet
--------------------------------

Gtr 1 w/ Riff B
Gtr 2 w/ Rhy. Fig. 3 (1st Measure; W/ Last Measure Of Riff B)
--------------------------------------------------------------

Gtr 1 w/ Rhy. Fig. 2b (First 7 Measures)
Gtr 2 w/ Rhy. Fig. 3 (Last 3 Measures)
Gtr 2 w/ Rhy. Fig. 4
------------------------------------------

Gtr 1 w/ Riff A (3 & 1/2 Times)
Gtr 2 Tacet
-------------------------------------------

Gtr 1 W/ Riff C
Gtr 2 Tacet
-----------------

Gtr 1 W/ Rhy. Fig. 5a
          Rhy. Fig. 5b
          Rhy. Fig. 6
          Rhy. Fill 2

Gtr 2 W/ Rhy. Fig. 5a 
          Rhy. Fig. 5b
          Rhy. Fig. 6
	  Rhy. Fill 2

Gtr 3 W/ Chorus Riffs
-----------------------

Gtr. 1 W/ Rhy. Fig. 7
Gtr. 2 W/ Rhy. Fig. 7
-----------------------

Gtr 1 W/ Rhy. Fig. 2b (1st Measure)
          Rhy. Fig. 2b (1st 7 Measures)

Gtr 2 Rest 4 Measures
       Rhy. Fig. 4

Gtr 3 W/ Solo 1
-----------------------

Gtr 1 W/ Riff A (2 times)
          Rhy. Fill 1a
          Rest 2 Measures
          Riff C
  
Gtr 2 W/ Rhy. Fill 1b (Along With Fill 1a)		
-------------------------------------------

Gtr 1 W/ Rhy. Fig. 5a (1st 4 Measures)
         Rhy. Fig. 9
Gtr 2 W/ Rhy. Fig. 5a (1st 4 Measures)
         Rhy. Fig. 9

Gtr 3 W/ Rhy. Fig. 8
---------------------------

Gtr 1 W/ Rhy. Fig. 5a
          Rhy. Fill 2

Gtr 2 W/ Rhy. Fig. 6
          Rhy. Fill 2

Gtr 3 W/ Solo 2
-----------------------

Gtr 1 W/ Rhy. Fig. 7
Gtr 2 W/ Rhy. Fig. 7
Gtr 3 Tacet
-----------------------

Gtr 1 W/ Rhy. Fig. 2b (1st Measure)
         Rhy. Fig. 2b (1 & 7/8 Times)

Gtr 2 Rest 4 Measures
      W/ Rhy. Fig. 4
         Rhy. Fig. 3
	 Rhy. Fig. 4
         Rhy. Fig. 3
         Rhy. Fig. 4
	 Rhy. Fig. 3

Gtr. 3 Solo 3

End!!!!!!!!!


                                            Tabs
           ********************************************************************** 

Song:"Animal Magnetism"
Artist:"Scorpions"
Album="Animal Magnetism"
Lyricist="Klaus Meine, Herman Rarebell"
Composer="Rudolf Schenker"
Tuning="Regular Tuning"
Transcribed by="Nick"


Comments:

1-Email: UFOrules@aol.com


Intro (Solo):

e||-----------------|---------------------------------|
B||-----------------|---------------------------------|
G||---2-1-----------|------2-1------------------------|
D||-------2-2-2/3---|----------2-2-2/3---3-3-3/5-3----|
A||-----------------|---------------------------------|
E||-0---------------|--0---------------------------0--|




||-------------|-------------|-------------|----------------|
||-------------|-------------|-------------|----------------|
||-------------|-------------|-------------|----------------|
||-2-2-2-3-2-2-|-2-2-2-3-2-2-|-2-2-2-3-2-2-|-------0---0----|
||-------------|-------------|-------------|-0-2-3---3------|
||-------------|-------------|-------------|----------------|



||-------------|-------------|------------------------|
||-------------|-------------|------------------------|
||-------------|-------------|10-10-10-10-10-10--9----|
||-2-2-2-3-2-2-|-2-2-2-3-2-2-|10-10-10-10-10-10--9----|
||-------------|-------------|-8--8--8--8--8--8--7----|
||-------------|-------------|------------------------|


                                            Chords
           ********************************************************************** 

Song:"Hey You"
Artist:"Scorpions"
Album="Animal Magnetism"
Lyricist="Klaus Meine, Herman Rarebell"
Composer="Rudolf Schenker"
Tuning="Regular Tuning"
Transcribed by="J.M. Guzman V"

Comments:

1-I didn't write the rythm because I think you can get it just by listening to
  the music. I didn't figure out the lyrics I only copy them, so if anybody 
  really knows what Klaus says in the song then please e-mail me the correct 
  lyrics. Thanx.
                        ,
2-E-mail al445924@sunserv.cem.itesm.mx
  Any additions, corrections, tips, licks and tricks are welcome.


INTRO : Em D C G D
 
Em   D           C             G  D
Hey you, I'm in love with your eyes

Em        D            C    G D
And the sound of your name

Em   D           C             G  D
Hey you, I'm in love with your smile
Em        D            C       G  D
And the ?????????

Em   D           C             G  D
Hey you, well I like the way you walk

Em          D              C    G D
Just like a star moves on stage

Em   D           C             G  D 
Hey you, well I like the way you talk

Em             D            C
You're really calm for your age

            Em D
 I really like      
                    Em D
 You're driving me wild
 	     Em D 	     
 I really like
 	Em 	       C
 I'm in ????, I'm in ?????
 
 (...And The Same Chords Are Used Throughout The Song. I Only Put The Lyrics)


 I really like
 You're driving me wild
 I really like
 I'm in ????, I'm in ?????
 ??????????

 Hey you, I said you know what's going on
 Do you know what I mean
 Hey you, if he wants you better come
 ???????

 I really like
 You're driving me wild
 I really like
 I'm in ?????, I'm in ??????

 I really like
 You're driving me wild
 I really like
 I'm in ?????, I'm in ?????
 ????????



                                            End                       
             **********************************************************************                 
                               
                               I Think,Now You Sure Also That: 
                                
                                 **************************
                                 *Only Scorpions Can Do It*                           
                                 **************************
comments
We did not receive enough feedback on this tab! Please rate:
1 2 3 4 5
I want to post or [tab]
guest
You may want to rate the tab now too:
select rating
Please do not post tabs as comments. Select "correction" instead!