Oops, an error
Loading. Please wait.

Another Piece Of Meat Tab

ver2
ver2

Whole song

Interactive

More versions @911Tabs.com
1,602 views 1 this week
no commentswrite comment
1 2 3 4 5
please rate
Autoscroll
+/-
esc
set tempo
stop
Contributor
Difficulty
advanced
Hey! There's an official Ultimate Guitar app which is ideal
for learning songs when you're away from computer. Get the app
WARNING: You are trying to view
                                    content from Ultimate-Guitar.com
                                    in an unauthorized application,
                                    which is prohibited.

                                    Please use an official Ultimate
                                    Guitar Tabs application for iPhone,
                                    iPad or Android to access legitimate
                                    chords, guitar, bass, and drum tabs
                                    from Ultimate-Guitar.com database.

                                    Type "ultimate guitar tabs" in Apple
                                    App Store's or Android Market's
                                    search to find the application.
Band:  Scorpions
Album: Lovedrive
Song:  Another Piece of Meat

Copyright (c)  (RCA) (1979)
Version 1.0 - (04/07/06)


Transcribed By: Steve
Email:          stephen.elvidge1@ntlworld.com


.  - palm mute           /  - slide up to
\  - slide down to       ~  - vibrato
h  - hammer on           b  - Bend
p  - pull off            Suffixes for bend
t  - tap                 f  - full bend    h - half bend
ph - pinched harmonic    q  - quarter bend t - tap bend
                         p  - pre bend
*  - see comment         ^  - Hold bend    r release bend
x  - Stuccatto           ~  - vibrato bend
,  - slight palm mute    () - ghost note, sustained note
"  - tremolo note        <> - harmonic

Tuning E A D G B E

 Main Riff

 Guitar 1
[------------------------|
[------------------------|
[---------------9-7-8-9--|
[---------------9-7-8-9--|
[--/9---9----------------|
[-5/7-777-x-7-x----------|
[Guitar 2
[------------------------|
[------------------------|
[------------------------|
[------------------------|
[-2p0-2p0-2--0-2--3-4-5--|
[------------------------| Rpt 3 X


 Guitar 1
[------------------------|
[---------9bp7-----------|
[---------9bp7-9p7-77----|
[---------------------97-|
[--/9---9----------------|
[-5/7-777----------------|
[Guitar 2
[------------------------|
[------------------------|
[------------------------|
[------------------------|
[-2p0-2p0-2--0-2--3-4-5--|
[------------------------|


 Guitar 1
[------------------------|
[------------------------|
[-----------------7-8-9--|
[-----------------7-8-9--|
[--/9---9----------------|
[-5/7-777-x-7-x-x--------|
[Guitar 2
[------------------------|
[------------------------|
[------------------------|
[------------------------|
[-2p0-2p0-2--0-2--3-4-5--|
[------------------------|


 Guitar 1
[---------------141414----|
[---------------161616----|
[---------------------14--|
[-----------------------16|
[--/9---9-----------------|
[-5/7-777-x-7-x-----------|
[Guitar 2
[-------------------------|
[-------------------------|
[-------------------------|
[-------------------------|
[-2p0-2p0-2--0-2--3-4-5---|
[-------------------------|

 Guitar 1
[------------------------|
[------------------------|
[-----------------7-8-9--|
[-----------------7-8-9--|
[--/9---9----------------|
[-5/7-777-x-7-x-x--------|
[Guitar 2
[------------------------|
[------------------------|
[------------------------|
[------------------------|
[-2p0-2p0-2--0-2--3-4-5--|
[------------------------|

 Guitar 1
                           ~~~~~~~
[------------------------------------|
[------------------------------------|
[---------------7-8-9-7-8------------|
[---------------7-8-9-7-8-9-------\0-|
[--/9---9----------------------------|
[-5/7-777-x-7-x----------------------|
[Guitar 2
[------------------------------------|
[------------------------------------|
[------------------------------------|
[------------------------------------|
[-2p0-2p0-2--0-2--3-4-7---9--\-------|
[---------------------5---7--\-------|

 Verse

|---------------|
|---------------|
|---------------|
|---------------|
|-7-/9-------\--|
|-5-/7-------\--| Rpt 7 X

 Rpt Main Riff

 Last time


 Guitar 1
                          ~~~~~~~~~~~~~
[----------------------------------------|
[---------9bp7------7--------------------|
[---------9bp7-9p7----7------------------|
[------------------------9-------------\-|
[--/9---9--------------------------------|
[-5/7-777--------------------------------|
[Guitar 2
[----------------------------------------|
[----------------------------------------|
[----------------------------------------|
[----------------------------------------|
[-2p0-2p0-2--0-2--3-4-7-/9-----\---------|
[---------------------5-/7-----\---------|

 Rpt Verse

 Chorus

                        [PM]     [PM]   [PM]    [PM]                    
|-----------------------------------------------------|
|-----------------------------------------------------|
|-----------------------------------------------------|
|-9----7----------------------------------------------|
|-7----5----7----9------------------------------------|
|-----------5----7---2/3-3-3-2/3-3-3-2/3-3-3-2/3-3-3/-|

 [-------------PM----------------]
|---------------------------------|
|---------------------------------|
|---------------------------------|
|---------------------------------|
|-9-9-9-9-9-9-9-9-9-9-9-9-9-9-9-9-|
|-7-7-7-7-7-7-7-7-7-7-7-7-7-7-7-7-|

 Lead fill
                                                  
|------------------------------------------------|
|------------------------------------------------|
|--------------------------------------7---------|
|--------------------------7---7-9p7-9---9-7-9p7-|
|--------5---5-7p5-7-9p7-9---9-------------------|
|-/5-7p5---7-------------------------------------|

 Guitar 1
                         [PM]     [PM]                       
[--------------------------------------------|
[--------------------------------------------|
[--------------------------------------------|
[-9----7-------------------------------------|
[-7----5----7----9---------------------------|
[-----------5----7----2/3-3-3-2/3-3-3-3------|
[Guitar 2
[  ~~~~~~~~~~~~~ ~~~~      ~~~~~~~~~~~~
[--------------------------------------------|
[--------------------------------------------|
[---------------------6/7--------------------|
[-7b---7--------/9---\4/5--------------------|
[--------------------------------------------|
[--------------------------------------------|

 Guitar 1
[------------------------|
[------------------------|
[-----------------7-8-9--|
[-----------------7-8-9--|
[--/9---9----------------|
[-5/7-777-x-7-x-x--------|
[Guitar 2
[------------------------|
[------------------------|
[------------------------|
[------------------------|
[-2p0-2p0-2--0-2--3-4-5--|
[------------------------|


 Guitar 1
[-------------------------|
[-----------------101010\-|
[-----------------111111\-|
[---5---5-----------------|
[-5/7-777-x-7-x-----------|
[-5/7-777-x-7-x-----------|
[Guitar 2
[-------------------------|
[-------------------------|
[-------------------------|
[-------------------------|
[-2p0-2p0-2--0-2--3-4-5---|
[-------------------------|

 Guitar 1
[------------------------|
[------------------------|
[-----------------7-8-9--|
[-----------------7-8-9--|
[--/9---9----------------|
[-5/7-777-x-7-x-x--------|
[Guitar 2
[------------------------|
[------------------------|
[------------------------|
[------------------------|
[-2p0-2p0-2--0-2--3-4-5--|
[------------------------|

 Guitar 1
                      ~~~
[------------------------|
[------------------------|
[-----------------7-8-7--|
[-----------------7-8-7--|
[--/9---9----------------|
[-5/7-777-x-7-x-x--------|
[Guitar 2
[------------------------|
[------------------------|
[------------------------|
[------------------------|
[-2p0-2p0-2--0-2--3-4----|
[------------------------|

 Backing for solo

|-------------------------------------------------------|
|-------------------------------------------------------|
|-------------------------------------------------------|
|-------------------------------------------------------|
|-4-4-4-4-4-4-4-4-4-2-----2--4-4-4-4-4-4-4-4-4----------|
|---------------------4------------------------2--3--4--| Rpt 7 X


|----------------------------|
|----------------------------|
|----------------------------|
|----------------------------|
|-2--3--4-----------2--3--4--|
|----------2--3--4-----------|

 Guitar solo

|-------------------------------------------------------------|
|-------14-p12----------------------14------------------------|
|--------------13-11b-11p9----11/13----13p12p11-11p9----11-9--|
|-11/13--------------------11------------------------11-------|
|-------------------------------------------------------------|
|-------------------------------------------------------------|

  ~~~~~~~        ~~~   ~~~                         ph ph ph ph
|------------------------------------------------------------------|
|------------------------------------------------------------------|
|-----------------------------11-11b11b11b11b1111b-11b11b11b11fb-r-|
|--------------------------11-11-----------------------------------|
|-11-10-9p7---9-7b--r----------------------------------------------|
|-----------9---------9--------------------------------------------|

                 ~~~~~~              ~~~~                ~~
|-----------------------------------------------------------|
|-----------------------12----12-12-------------------------|
|-p9-------------------/---13-------13---p12-11p9-11b11b-9--|
|-----------------------------------------------------------|
|----11-10-9-7-9-7------------------------------------------|
|-----------------------------------------------------------|

                                    ~~~~~~~~~~~~~
|----9---------9---------9-12p9-----------------------------------|
|------12p9------12p9-12--------12-12b----fb-----\-9--------------|
|-11b-------11b--------------------------------------12-11p9-11p9-|
|-----------------------------------------------------------------|
|-----------------------------------------------------------------|
|-----------------------------------------------------------------|

    h   h                                        ~~~~~
|------------------------------------------------------|
|------------------------------------------------------|
|-8-9-8-9p8--------------------------------------------|
|--------------9-------9-------------------------------|
|-----------11---10-11---11-10-9---7-9-9b--9-7-9-7-----|
|--------------------------------9---------------------|

                 ~~~~  ~~~~~~                                    ~~~  
|---------------------------------------------------------------------|
|---12b-12b-12b-12b---12---12-----------12b--------999------99--------|
|-x-12b-12b-12b-12b---12---12-11-9-11p9-12b-9-11p9-999------99--------|
|------------------------------------------------------11-9----11b-r9-|
|---------------------------------------------------------------------|
|---------------------------------------------------------------------|


|---------------------------------------------------------------------|
|----1414---1414----1414---14----14-12-1414p12-1414p12----------------|
|-16b----16b-----16b----16b---16b----------------------13br12-11p9----|
|------------------------------------------------------------------11-|
|---------------------------------------------------------------------|
|---------------------------------------------------------------------|

 Rpt Main Riff

 Guitar 1
[----------------141414\-|
[----------------161616\-|
[------------------------|
[------------------------|
[--/9---9----------------|
[-5/7-777-x-7-x----------|
[Guitar 2
[------------------------|
[------------------------|
[------------------------|
[------------------------|
[-2p0-2p0-2--0-2--3-4-5--|
[------------------------|

 Guitar 1
                      ~~~
[------------------------|
[---------9bp7-----------|
[---------9bp7-9p7-77----|
[---------------------9--|
[--/9---9----------------|
[-5/7-777----------------|
[Guitar 2
[------------------------|
[------------------------|
[------------------------|
[------------------------|
[-2p0-2p0-2--0-2--3-4-5--|
[------------------------|


 Guitar 1
[----------------111111\-|
[----------------121212\-|
[------------------------|
[------------------------|
[--/9---9----------------|
[-5/7-777-x-7-x----------|
[Guitar 2
[------------------------|
[------------------------|
[------------------------|
[------------------------|
[-2p0-2p0-2--0-2--3-4-5--|
[------------------------|

 Guitar 1
                           ~~~~~~~
[------------------------------------|
[------------------------------------|
[---------------------9-7-7----------|
[---------------------9-7-7----------|
[--/9---9----------------------------|
[-5/7-777-x-7-x-x-x------------------|
[Guitar 2
[------------------------------------|
[------------------------------------|
[------------------------------------|
[------------------------------------|
[-2p0-2p0-2--0-2--3-4-7---9--\-------|
[---------------------5---7--\-------|

 Rpt Verse With lead fills

                                  ~~~~~~
|-17fb---r17--14p12-----14p12------------|
|-------------------15--------15-12------|
|----------------------------------------|
|----------------------------------------|
|----------------------------------------|

            ~~~~~~~~~~~~~
|-------------------------|
|-10----------------------|
|----11-9-11b-------------|
|-------------------------|
|-------------------------|
|-------------------------|

          ~~~~~                     ~~~~~~~~~~~~
|-18fb--18fb------x\----------------------------|
|---------------------------12-10--b------------|
|------------------------11---------------------|
|--------------------7/9------------------------|
|-----------------------------------------------|
|-----------------------------------------------|

 Rpt Chorus

 Guitar 1
                        [PM]     [PM]   [PM]    [PM]                    
[-----------------------------------------------------|
[-----------------------------------------------------|
[-----------------------------------------------------|
[-9----7----------------------------------------------|
[-7----5----7----9------------------------------------|
[-----------5----7---2/3-3-3-2/3-3-3-2/3-3-3-2/3-3-3/-|
[Guitar 2                                       
[-----------------------------------------------------|
[-----------------------------------------------------|
[-----------------------------------------------------|
[-9----7----------------------------------------------|
[-7----5----7----9------------------------------------|
[-----------5----7---2/3------------(3)------------3/-|

 Lead fill
                                       ph                    
|-------------------------------------------|
|-------------------------------------------|
|--------------------------------------7b---|
|--------------------------7---7-9p7-9----\-|
|--------5---5-7p5-7-9p7-9---9--------------|
|-/5-7p5---7--------------------------------|

 Guitar 1
                         [PM]     [PM]    [PM]     [PM]                      
[---------------------------------------------------------|
[---------------------------------------------------------|
[---------------------------------------------------------|
[-9----7--------------------------------------------------|
[-7----5----7----9----------------------------------------|
[-----------5----7----2/3-3-3-2/3-3-3-3-2/3-3-3-2/3-3-3-3-|
[Guitar 2
[  ~~~~~~~~~~~~~ ~~~~      ~~~~~~~~~~~~
[---------------------------------------------------------|
[---------------------------------------------------------|
[---------------------------------------------------------|
[-7b---7--------------------------------------------------|
[---------------------------------------------------------|
[-----------5----7--5b-3----------------------------------|

 Lead fill
                                                          ~~~~~~~~
|------7---------------7----7------7----7---------------------------|
|-10fb---10p7---10p7---7-10---10p7-7-10---10p7---7------------------|
|-------------9------9-------------------------9b--9p7---7b---------|
|------------------------------------------------------9------------|
|-------------------------------------------------------------------|
|-------------------------------------------------------------------|


 Guitar 1
                        [PM]     [PM]   [PM]    [PM]                    
[-----------------------------------------------------|
[-----------------------------------------------------|
[-----------------------------------------------------|
[-9----7----------------------------------------------|
[-7----5----7----9------------------------------------|
[-----------5----7---2/3-3-3-2/3-3-3-2/3-3-3-2/3-3-3/-|
[Guitar 2
[                         ~~~~~~~~~~~~~~~~~~~~~~~~~~                                          
[-----------------------------------------------------|
[-----------------------------------------------------|
[-----------------------------------------------------|
[-9----7---------------12------------(12)-------------|
[-7----5----7----9-----10------------(10)-------------|
[-----------5----7------------------------------------|

 Lead fill

|-----------------------------|
|-------7------------9-7------|
|-------7------------9-7------|
|---------9-9------------9-7--|
|-7-9-9--------7-9-9----------|
|-----------------------------|

 Guitar 1
                         [PM]     [PM]                       
[------------------------------------------------|
[------------------------------------------------|
[------------------------------------------------|
[-9----7-----------------------------------------|
[-7----5----7----9-----------------------------9-|
[-----------5----7----2/3-3-3-2/3-3-3-3--------7-|
[Guitar 2                                 pick scrape
[------------------------------------------------|
[------------------------------------------------|
[-----------------------0------(0)---------------|
[-9----7----------------0------(0)---------------|
[-7----5----7----9-------------------------x\--9-|
[-----------5----7------3------(3)------7\-x\--7-|




END

comments
We did not receive enough feedback on this tab! Please rate:
print report bad tab
1 2 3 4 5
I want to post or [tab]
guest
You may want to rate the tab now too:
select rating
Please do not post tabs as comments. Select "correction" instead!