Oops, an error
Loading. Please wait.

Bad Boys Running Wild Tab

ver3
ver3

Whole song

Interactive

More versions @911Tabs.com
3,477 views 12 this week
2 commentsread comments
1 2 3 4 5
excellent!
x 1
Autoscroll
+/-
esc
set tempo
stop
Contributor
Difficulty
intermediate
WARNING: You are trying to view
                                    content from Ultimate-Guitar.com
                                    in an unauthorized application,
                                    which is prohibited.

                                    Please use an official Ultimate
                                    Guitar Tabs application for iPhone,
                                    iPad or Android to access legitimate
                                    chords, guitar, bass, and drum tabs
                                    from Ultimate-Guitar.com database.

                                    Type "ultimate guitar tabs" in Apple
                                    App Store's or Android Market's
                                    search to find the application.
-----------------------------------------------------------------------------
1. 		              Bad Boys Running Wild - The Scorpions
2.                      Love at First Sting - 1984
3. Words by Klaus Meine and Herman Rarebell    Music by Rudolph Schenker
-----------------------------------------------------------------------------
Tabbed by: Duane Baldwin
Email: duaneandjulie@gmail.com

Tuning: Standard

Guitar I  (Heavy Overdrive)

Intro
e|-------------------------------------------------------------------|
B|--17\(13)--10--13p12p10-------------0--3p1p0-----------------------|
G|-------------------------12p11p9\4------------3p2p0----------------|
D|-----------------------------------------------------3p2p0---------|
A|------------------------------------------------------------3p2p0--|
E|-------------------------------------------------------------------|

  Let Ring --------------------------------------|
e|------------------------------------------------|------------|
B|------------------------------------------------|------------|
G|---------0-----------0-----------0-----------0--|------------|
D|-----2-----------0-----------2-----------0------|------------|
A|-3-----------2-----------3-----------2----------|-----2------|
E|------------------------------------------------|-----0------|

e|-----------------------/--|
B|----------------------/---|
G|------------------2P+/----|
D|--------------------------|
A|-----2---2----------------|
E|--12\0---0\----/----------|
             \  /
              \/
              -3

e|-----------------|-----------------|-----------------|-----------------|
B|-----------------|-----------------|-----------------|-----------------|
G|-----------------|-----------------|-----------------|-----------------|
D|----------5---4--|----------7---5--|----------5---4--|----------7---5--|
A|--2---2---3---2--|--5---5---5---3--|--2---2---3---2--|--5---5---5---3--|
E|--0---0----------|--3---3----------|--0---0----------|--3---3----------|

                                                     P.H.------------|
e|---------------|---------------|---------------|--------------------------|
B|---------------|---------------|---------------|--------------------------|
G|---------------|---------------|---------------|-2b-2pb-2pb-2pb-2pbr-0----|
D|---------5--4--|---------7--5--|---------5--4--|------------------------2-|
A|--2--2---3--2--|--5--5---5--3--|--2--2---3--2--|--------------------------|
E|--0--0---------|--3--3---------|--0--0---------|--------------------------|

1st Verse
                                                    Let Ring
e|-------------------------------|------------------------------------------|
B|-------------------------------|----------------------------1-------------|
G|--9--9--9---7---7---8---8---7--|--2---2---2---2----------0----------------|
D|--9--9--9---7---7---7---7---7--|--2---2---2---2-------2-------------------|
A|--7--7--7---5---5---5---5---5--|--0---0---0---0--0h3-----------2--0-------|
E|--0--0--0----------------------|-------------------------------------3--0-|
		
                    Let Ring------|             Let Ring-----------------|
e|---------------------------------|----------------------------------------|
B|------------------------5--------|-------------------1--------1----------1|
G|--9--9--9--9---------7-----7-----|-2--2--2--2-----0--------0----------0---|
D|--9--9--9--9---7--7-----------7--|-2--2--2--2----------------------0------|
A|--7--7--7--7---5-----------------|-0--0--0--0--3--------2-------3---------|
E|--0--0--0--0---------------------|----------------------------------------|

e|-------------------------------------------------|
B|-------------------------------------------------|
G|-------------------------------------------------|
D|---------------7--7--7---5--5--5--5--5--5--5--5--|
A|--5--5--5--5---5--5--5---3--3--3--3--3--3--3--3--|
E|--3--3--3--3-------------------------------------|

e|-----------------|-----------------|-----------------|-----------------|
B|-----------------|-----------------|-----------------|-----------------|
G|-----------------|-----------------|-----------------|-----------------|
D|----------5---4--|----------7---5--|----------5---4--|----------7---5--|
A|--2---2---3---2--|--5---5---5---3--|--2---2---3---2--|--5---5---5---3--|
E|--0---0----------|--3---3----------|--0---0----------|--3---3----------|

2nd Verse
e|----------------------------------|--------------------------------|
B|----------------------------------|--------------------------------|
G|--9--9--9--9---7---7---8---8---7--|--2---2---2--7P+p5p4------------|
D|--9--9--9--9---7---7---7---7---7--|--2---2---2-----------7p5p4-----|
A|--7--7--7--7---5---5---5---5---5--|--0---0---0------------------7--|
E|--0--0--0--0----------------------|--------------------------------|

  Let Ring------|
e|-----------------------------|
B|--------------1--------------|
G|----------0------------------|
D|------2----------------------|
A|--3--------------2--0--------|
E|-----------------------3--0--|

                    Let Ring------|             Let Ring-----------------|
e|---------------------------------|----------------------------------------|
B|------------------------5--------|-------------------1--------1----------1|
G|--9--9--9--9---------7-----7-----|-2--2--2--2-----0--------0----------0---|
D|--9--9--9--9---7--7-----------7--|-2--2--2--2----------------------0------|
A|--7--7--7--7---5-----------------|-0--0--0--0--3--------2-------3---------|
E|--0--0--0--0---------------------|----------------------------------------|

e|-------------------------------------------------|
B|-------------------------------------------------|
G|-------------------------------------------------|
D|---------------7--7--7---5--5--5--5--5--5--5--5--|
A|--5--5--5--5---5--5--5---3--3--3--3--3--3--3--3--|
E|--3--3--3--3-------------------------------------|

1st Chorus
e|--------------------------------------------------------------------------|
B|--------------------------------------------------------------------------|
G|-----------------------------7--7--7--7--7--7--7--5--5--5--5--5--5--5--5--|
D|--9\7---9\7---9--------------7--7--7--7--7--7--7--5--5--5--5--5--5--5--5--|
A|--7\5---7\5---7---7---5--5---5--5--5--5--5--5--5--3--3--3--3--3--3--3--3--|
E|------------------5---3--3------------------------------------------------|

e|--------------------------------------------------------------------------|
B|--------------------------------------------------------------------------|
G|-----------------------------7--7--7--7--7--7--7--5--5--5--5--5--5--5--5--|
D|--9\7---9\7---9--------------7--7--7--7--7--7--7--5--5--5--5--5--5--5--5--|
A|--7\5---7\5---7---7---5--5---5--5--5--5--5--5--5--3--3--3--3--3--3--3--3--|
E|------------------5---3--3------------------------------------------------|

e|-------------------------|
B|-------------------------|
G|-------------------------|
D|-------------------------|
A|--3---3---2---2---1------|
E|----------------------3--|

e|-----------------|-----------------|-----------------|-----------------|
B|-----------------|-----------------|-----------------|-----------------|
G|-----------------|-----------------|-----------------|-----------------|
D|----------5---4--|----------7---5--|----------5---4--|----------7---5--|
A|--2---2---3---2--|--5---5---5---3--|--2---2---3---2--|--5---5---5---3--|
E|--0---0----------|--3---3----------|--0---0----------|--3---3----------|

                                    S.H.
e|--------------|-------------|---------------------------------------------|
B|--------------|-------------|-15b~~~-12--12---12---12----------------12---|
G|--------------|-------------|--------14b-14pb-14pb-14pb-15p14p12-----12---|
D|--------5--4--|--------7--5-|-------------------------------------14----14|
A|--2--2--3--2--|--5--5--5--3-|---------------------------------------------|
E|--0--0--------|--3--3-------|---------------------------------------------|

3rd Verse
                    Let Ring------|               Let Ring
e|---------------------------------|----------------------------------------|
B|------------------------5--------|---------------------1------------------|
G|--9--9--9--9---------7-----7-----|-2--2--2--2-------0---------------------|
D|--9--9--9--9---7--7-----------7--|-2--2--2--2-----------------------------|
A|--7--7--7--7---5-----------------|-0--0--0--0--0h3----------2---0---------|
E|--0--0--0--0---------------------|---------------------------------3---0--|

                    Let Ring------|             
e|---------------------------------|----------------------------------------|
B|------------------------5--------|----------------------------------------|
G|--9--9--9--9---------7-----7-----|-2--2--2--2-----------------------------|
D|--9--9--9--9---7--7-----------7--|-2--2--2--2-----------------------------|
A|--7--7--7--7---5-----------------|-0--0--0--0--3p+--3--3--3p+--2--0--2-3P+|
E|--0--0--0--0---------------------|----------------------------------------|

e|-------------------------------------------------|
B|-------------------------------------------------|
G|-------------------------------------------------|
D|---------------7--7--7---5--5--5--5--5--5--5--5--|
A|--5--5--5--5---5--5--5---3--3--3--3--3--3--3--3--|
E|--3--3--3--3-------------------------------------|

2nd Chorus
                                               P.H. -----------------------|
e|--------------------------------------------------------------------------|
B|--------------------------------------------------------------------------|
G|------------------------7--7--7--7--7--7--7---------12--------12--------12|
D|--9\7--9\7--9-----------7--7--7--7--7--7--7-------------------------------|
A|--7\5--7\5--7--7--5--5--5--5--5--5--5--5--5--12--14----12--14----12--14---|
E|---------------5--3--3----------------------------------------------------|

e|--------------------------------------------------------------------------|
B|------------------------------------------------12---12-------------------|
G|---------------------------7--7--7--7--7--7--7--14b--14pbr--14p12-----12p+|
D|--9\7--9\7--9--------------7--7--7--7--7--7--7---------------------14-----|
A|--7\5--7\5--7---7---5--5---5--5--5--5--5--5--5----------------------------|
E|----------------5---3--3--------------------------------------------------|

e|-----------------12---12--------------------------------------------------|
B|-----------------15b--15b--15br--12-----------17--15p12------12-----------|
G|-------------------------------------14--14b-------------14------14br--12-|
D|--9\7---9\7---9-----------------------------------------------------------|
A|--7\5---7\5---7-----------------------------------------------------------|
E|--------------------------------------------------------------------------|

                                       S.H.
e|-------------------------------------------|
B|----------12~~~----------------------------|
G|------14--12~~~----------------------------|
D|--14-------------14--12--------------------|
A|-------------------------14--13--10--12b---|
E|-------------------------------------------|

e|-----------------17b--17b--17p15--------------------------|
B|----------------------------------17--17------------------|
G|------------------------------------------16--15--14--12--|
D|--9\7---9\7---9-------------------------------------------|
A|--7\5---7\5---7-------------------------------------------|
E|----------------------------------------------------------|

Bridge
e|---0---|---------|---------|---------|--------|-------/--|--------|
B|---1---|---------|---------|---------|--------|------/---|--------|
G|---0---|---------|---------|---------|--------|---7+/----|--------|
D|---2---|---------|---------|---------|---0----|----------|--------|
A|---3---|---------|---------|---------|--------|----------|--------|
E|-------|---------|---------|---------|--------|----------|----0---|
                                                                 \
                                                                  \
                                                                   \
                                                                   -4
Main Solo
e|----------------------------------------------|---------------------------|
B|----------------------------------------------|---------------------------|
G|--4---4p2p0-----------------0h2p+~~~--4p+~~~--|--4p2p0------------4p+~~~--|
D|-------------4p2p0---0h2h4--------------------|---------4p2p0-------------|
A|----------------------------------------------|---------------------------|
E|----------------------------------------------|---------------------------|

e|-----------------------------------------------------------------|
B|-----------------------------------------------------------------|
G|--------7p0--12p0--7------7p0--12p0--7------7p0--12p0--7------7--|
D|-----------------------------------------------------------------|
A|--12p0----------------12----------------12----------------12-----|
E|-----------------------------------------------------------------|

e|------------------------------------|-----------------------------------|
B|--------------x--x------------------|-------12------14br---12---14b~~~--|
G|--9p+---12p+--x--x------------------|-------12------14br---12---14b~~~--|
D|--------------x--x----------12--13--|--14-------14----------------------|
A|---------------------11/14----------|-----------------------------------|
E|------------------------------------|-----------------------------------|

e|---------------------------------------------------------------------|
B|-------12-------12-------12--17p12-------12--15p12-------12----------|
G|--14b------14b------14b-------------14b-------------14b------15--14--|
D|---------------------------------------------------------------------|
A|---------------------------------------------------------------------|
E|---------------------------------------------------------------------|

e|--------------------------------------15--17b-|---------------------------|
B|-------------------12---------15--17----------|-11--12--------------------|
G|--12------12--14b------14/16------------------|---------11--12------------|
D|------14--------------------------------------|-----------------13--14----|
A|----------------------------------------------|-------------------------13|
E|----------------------------------------------|---------------------------|

e|--------------------------------------------------------------|
B|-------12\----------------------------------------------------|
G|-------12\4--4p2p0-----------4p2p0-----------4p2p0------------|
D|---------------------4p2p0-----------4p2p0-----------4p2p0----|
A|--14----------------------------------------------------------|
E|--------------------------------------------------------------|

e|-----------------------------------------------12--|
B|----------------------------------10p8-----8---12--|
G|--------------------------9p7-----------9----------|
D|----------7p5-----9p7----------9-------------------|
A|--7p5----------7-------9---------------------------|
E|-------7-------------------------------------------|

3rd Chorus
                                               P.H. -----------------------|
e|--------------------------------------------------------------------------|
B|--------------------------------------------------------------------------|
G|------------------------7--7--7--7--7--7--7---------12--------12--------12|
D|--9\7--9\7--9-----------7--7--7--7--7--7--7-------------------------------|
A|--7\5--7\5--7--7--5--5--5--5--5--5--5--5--5--12--14----12--14----12--14---|
E|---------------5--3--3----------------------------------------------------|

e|------------------------------------------------------------------------|
B|------------------------------------------------15---15---15--------12--|
G|---------------------------7--7--7--7--7--7--7--14b--14b--14br------12--|
D|--9\7--9\7--9--------------7--7--7--7--7--7--7------------------14------|
A|--7\5--7\5--7---7---5--5---5--5--5--5--5--5--5--------------------------|
E|----------------5---3--3------------------------------------------------|

e|-----------------12---12--------------------------------------------------|
B|-----------------15b--15b--15br--12-----------17--15p12------12-----------|
G|-------------------------------------14--14b-------------14------14br--12-|
D|--9\7---9\7---9-----------------------------------------------------------|
A|--7\5---7\5---7-----------------------------------------------------------|
E|--------------------------------------------------------------------------|

                                       S.H.
e|-------------------------------------------|
B|----------12~~~----------------------------|
G|------14--12~~~----------------------------|
D|--14-------------14--12--------------------|
A|-------------------------14--13--10--12b---|
E|-------------------------------------------|

e|-----------------17b--17b--17p15--------------------------|
B|----------------------------------17--17------------------|
G|------------------------------------------16--15--14--12--|
D|--9\7---9\7---9-------------------------------------------|
A|--7\5---7\5---7-------------------------------------------|
E|----------------------------------------------------------|

Outro
e|-------------------|----------------|-------------------------------------|
B|-------------------|----------------|-------------------------------------|
G|--5----------------|--5-------------|-------------------------------------|
D|--5/9\7---9\7------|--5/9\7---9\7---|-------------------------------------|
A|--3/7\5---7\5------|--3/7\5---7\5---|--10------10--12--10--12--14--12--14-|
E|-------------------|----------------|------12-----------------------------|

e|--------------------------------------------------------------------------|
B|--------------------------------------------------------------12------12--|
G|--------------------------11------11--12--11--12--14--12--14------14------|
D|--12------12--14--12--14------14------------------------------------------|
A|------14------------------------------------------------------------------|
E|--------------------------------------------------------------------------|

e|-------------------|
B|--15--12--15--17---|
G|-------------------|
D|-------------------|
A|-------------------|
E|-------------------|

Guitar II (Heavy Overdrive)

Intro
e|-----------------------|---------------------|---------------------|
B|-----------------------|---------------------|---------------------|
G|-----------------------|---------------------|---------------------|
D|-----------------------|---------------------|---------------------|
A|-----------------------|---------------------|---------------------|
E|-----------------------|---------------------|---------------------|

e|-----------------|-----------------|-----------------|-----------------|
B|-----------------|-----------------|-----------------|-----------------|
G|-----------------|-----------------|-----------------|-----------------|
D|----------5---4--|----------7---5--|----------5---4--|----------7---5--|
A|--2---2---3---2--|--5---5---5---3--|--2---2---3---2--|--5---5---5---3--|
E|--0---0----------|--3---3----------|--0---0----------|--3---3----------|

e|-----------------|-----------------|-----------------|-----------------|
B|-----------------|-----------------|-----------------|-----------------|
G|-----------------|-----------------|-----------------|-----------------|
D|----------5---4--|----------7---5--|----------5---4--|----------7---5--|
A|--2---2---3---2--|--5---5---5---3--|--2---2---3---2--|--5---5---5---3--|
E|--0---0----------|--3---3----------|--0---0----------|--3---3----------|

e|-----------------|-----------------|-----------------|-----------------|
B|-----------------|-----------------|-----------------|-----------------|
G|-----------------|-----------------|-----------------|-----------------|
D|----------5---4--|----------7---5--|----------5---4--|----------7---5--|
A|--2---2---3---2--|--5---5---5---3--|--2---2---3---2--|--5---5---5---3--|
E|--0---0----------|--3---3----------|--0---0----------|--3---3----------|

e|-----------------|-----------------|-----------------|-----------------|
B|-----------------|-----------------|-----------------|-----------------|
G|-----------------|-----------------|-----------------|-----------------|
D|----------5---4--|----------7---5--|----------5---4--|----------7---5--|
A|--2---2---3---2--|--5---5---5---3--|--2---2---3---2--|--5---5---5---3--|
E|--0---0----------|--3---3----------|--0---0----------|--3---3----------|

1st Verse
                                                     Let Ring
e|---------------------------------|---------------------------------------|
B|---------------------------------|---------5--5--------------------------|
G|--------------7---7---8---8---7--|--2---2--5--5-----------0--------------|
D|--------------7---7---7---7---7--|--2---2--5--5--------2-----------------|
A|--2--2--2--2--5---5---5---5---5--|--0---0---------0h3-----------2--------|
E|--0--0--0--0---------------------|----------------------------------3b---|
		                                                     
e|---------------------------------|----------------------------------------|
B|---------------------------------|----------------------------------------|
G|--------------7---7---8---8---7--|--2---2--2---5---4--5--5--5--4--4--4--5-|
D|--------------7---7---7---7---7--|--2---2--2---5---4--5--5--5--4--4--4--5-|
A|--2--2--2--2--5---5---5---5---5--|--0---0--0---3---2--3--3--3--2--2--2--3-|
E|--0--0--0--0---------------------|----------------------------------------|
		
e|-------------------------------------------------|
B|-------------------------------------------------|
G|-------------------------------------------------|
D|---------------7--7--7---5--5--5--5--5--5--5--5--|
A|--5--5--5--5---5--5--5---3--3--3--3--3--3--3--3--|
E|--3--3--3--3-------------------------------------|

e|-----------------|-----------------|-----------------|-----------------|
B|-----------------|-----------------|-----------------|-----------------|
G|-----------------|-----------------|-----------------|-----------------|
D|----------5---4--|----------7---5--|----------5---4--|----------7---5--|
A|--2---2---3---2--|--5---5---5---3--|--2---2---3---2--|--5---5---5---3--|
E|--0---0----------|--3---3----------|--0---0----------|--3---3----------|

2nd Verse
                                                     Let Ring
e|---------------------------------|---------------------------------------|
B|---------------------------------|---------5--5--------------------------|
G|--------------7---7---8---8---7--|--2---2--5--5-----------0--------------|
D|--------------7---7---7---7---7--|--2---2--5--5--------2-----------------|
A|--2--2--2--2--5---5---5---5---5--|--0---0---------0h3-----------2--------|
E|--0--0--0--0---------------------|----------------------------------3b---|
		                                                     
e|---------------------------------|----------------------------------------|
B|---------------------------------|----------------------------------------|
G|--------------7---7---8---8---7--|--2---2--2---5---4--5--5--5--4--4--4--5-|
D|--------------7---7---7---7---7--|--2---2--2---5---4--5--5--5--4--4--4--5-|
A|--2--2--2--2--5---5---5---5---5--|--0---0--0---3---2--3--3--3--2--2--2--3-|
E|--0--0--0--0---------------------|----------------------------------------|
		
e|-------------------------------------------------|
B|-------------------------------------------------|
G|-------------------------------------------------|
D|---------------7--7--7---5--5--5--5--5--5--5--5--|
A|--5--5--5--5---5--5--5---3--3--3--3--3--3--3--3--|
E|--3--3--3--3-------------------------------------|

1st Chorus
e|--------------------------------------------------------------------------|
B|--------------------------------------------------------------------------|
G|-----------------------------7--7--7--7--7--7--7--5--5--5--5--5--5--5--5--|
D|--9\7---9\7---9--------------7--7--7--7--7--7--7--5--5--5--5--5--5--5--5--|
A|--7\5---7\5---7---7---5--5---5--5--5--5--5--5--5--3--3--3--3--3--3--3--3--|
E|------------------5---3--3------------------------------------------------|

e|--------------------------------------------------------------------------|
B|--------------------------------------------------------------------------|
G|-----------------------------7--7--7--7--7--7--7--5--5--5--5--5--5--5--5--|
D|--9\7---9\7---9--------------7--7--7--7--7--7--7--5--5--5--5--5--5--5--5--|
A|--7\5---7\5---7---7---5--5---5--5--5--5--5--5--5--3--3--3--3--3--3--3--3--|
E|------------------5---3--3------------------------------------------------|

e|-----------------|-----------------|-----------------|-----------------|
B|-----------------|-----------------|-----------------|-----------------|
G|-----------------|-----------------|-----------------|-----------------|
D|----------5---4--|----------7---5--|----------5---4--|----------7---5--|
A|--2---2---3---2--|--5---5---5---3--|--2---2---3---2--|--5---5---5---3--|
E|--0---0----------|--3---3----------|--0---0----------|--3---3----------|

e|-----------------|-----------------|-----------------|-----------------|
B|-----------------|-----------------|-----------------|-----------------|
G|-----------------|-----------------|-----------------|-----------------|
D|----------5---4--|----------7---5--|----------5---4--|----------7---5--|
A|--2---2---3---2--|--5---5---5---3--|--2---2---3---2--|--5---5---5---3--|
E|--0---0----------|--3---3----------|--0---0----------|--3---3----------|

3rd Verse
                                                     Let Ring
e|---------------------------------|---------------------------------------|
B|---------------------------------|---------5--5--------------------------|
G|--------------7---7---8---8---7--|--2---2--5--5-----------0--------------|
D|--------------7---7---7---7---7--|--2---2--5--5--------2-----------------|
A|--2--2--2--2--5---5---5---5---5--|--0---0---------0h3-----------2--------|
E|--0--0--0--0---------------------|----------------------------------3b---|
		                                                     
e|---------------------------------|----------------------------------------|
B|---------------------------------|----------------------------------------|
G|--------------7---7---8---8---7--|--2---2--2---5---4--5--5--5--4--4--4--5-|
D|--------------7---7---7---7---7--|--2---2--2---5---4--5--5--5--4--4--4--5-|
A|--2--2--2--2--5---5---5---5---5--|--0---0--0---3---2--3--3--3--2--2--2--3-|
E|--0--0--0--0---------------------|----------------------------------------|
		
e|-------------------------------------------------|
B|-------------------------------------------------|
G|-------------------------------------------------|
D|---------------7--7--7---5--5--5--5--5--5--5--5--|
A|--5--5--5--5---5--5--5---3--3--3--3--3--3--3--3--|
E|--3--3--3--3-------------------------------------|

2nd Chorus
e|--------------------------------------------------------------------------|
B|--------------------------------------------------------------------------|
G|-----------------------------7--7--7--7--7--7--7--5--5--5--5--5--5--5--5--|
D|--9\7---9\7---9--------------7--7--7--7--7--7--7--5--5--5--5--5--5--5--5--|
A|--7\5---7\5---7---7---5--5---5--5--5--5--5--5--5--3--3--3--3--3--3--3--3--|
E|------------------5---3--3------------------------------------------------|

e|--------------------------------------------------------------------------|
B|--------------------------------------------------------------------------|
G|-----------------------------7--7--7--7--7--7--7--5--5--5--5--5--5--5--5--|
D|--9\7---9\7---9--------------7--7--7--7--7--7--7--5--5--5--5--5--5--5--5--|
A|--7\5---7\5---7---7---5--5---5--5--5--5--5--5--5--3--3--3--3--3--3--3--3--|
E|------------------5---3--3------------------------------------------------|

e|--------------------------------------------------------------------------|
B|--------------------------------------------------------------------------|
G|-----------------------------7--7--7--7--7--7--7--5--5--5--5--5--5--5--5--|
D|--9\7---9\7---9--------------7--7--7--7--7--7--7--5--5--5--5--5--5--5--5--|
A|--7\5---7\5---7---7---5--5---5--5--5--5--5--5--5--3--3--3--3--3--3--3--3--|
E|------------------5---3--3------------------------------------------------|

e|--------------------------------------------------|
B|--------------------------------------------------|
G|-----------------------------7--7--7--7--7--7--7--|
D|--9\7---9\7---9--------------7--7--7--7--7--7--7--|
A|--7\5---7\5---7---7---5--5---5--5--5--5--5--5--5--|
E|------------------5---3--3------------------------|

Bridge
e|-----0-------|--------------------------|
B|-----1-------|--------------------------|
G|-----0-------|--------------------------|
D|-----2-------|--5--5--5--5--5--5--5--5--|
A|-----3-------|--3--3--3--3--3--3--3--3--|
E|-------------|--------------------------|

Solo
e|-------------|----------|----------|-----------|----------|----------|
B|-------------|----------|----------|-----------|----------|----------|
G|-----9-------|----7-----|----2-----|---5---4---|----------|----7-----|
D|-----9-------|----7-----|----2-----|---5---4---|----2-----|----7-----|
A|-----7-------|----5-----|----0-----|---3---2---|----2-----|----5-----|
E|-----0-------|----------|----------|-----------|----0-----|----------|

e|-------------|-----------|-----------------------------------------------|
B|-------------|-----------|-----------------------------------------------|
G|-----2-------|---5---4---|--5--5--5--5--5--5--5--5--------------7--7--7--|
D|-----2-------|---5---4---|--5--5--5--5--5--5--5--5--5--5--5--5--7--7--7--|
A|-----0-------|---3---2---|--3--3--3--3--3--3--3--3--5--5--5--5--5--5--5--|
E|-------------|-----------|--------------------------3--3--3--3-----------|

e|----------------------------|
B|----------------------------|
G|--5--5--5--5--5--5--5--5----|
D|--5--5--5--5--5--5--5--5----|
A|--3--3--3--3--3--3--3--3----|
E|----------------------------|

3rd Chorus
e|--------------------------------------------------------------------------|
B|--------------------------------------------------------------------------|
G|-----------------------------7--7--7--7--7--7--7--5--5--5--5--5--5--5--5--|
D|--9\7---9\7---9--------------7--7--7--7--7--7--7--5--5--5--5--5--5--5--5--|
A|--7\5---7\5---7---7---5--5---5--5--5--5--5--5--5--3--3--3--3--3--3--3--3--|
E|------------------5---3--3------------------------------------------------|

e|--------------------------------------------------------------------------|
B|--------------------------------------------------------------------------|
G|-----------------------------7--7--7--7--7--7--7--5--5--5--5--5--5--5--5--|
D|--9\7---9\7---9--------------7--7--7--7--7--7--7--5--5--5--5--5--5--5--5--|
A|--7\5---7\5---7---7---5--5---5--5--5--5--5--5--5--3--3--3--3--3--3--3--3--|
E|------------------5---3--3------------------------------------------------|

e|--------------------------------------------------------------------------|
B|--------------------------------------------------------------------------|
G|-----------------------------7--7--7--7--7--7--7--5--5--5--5--5--5--5--5--|
D|--9\7---9\7---9--------------7--7--7--7--7--7--7--5--5--5--5--5--5--5--5--|
A|--7\5---7\5---7---7---5--5---5--5--5--5--5--5--5--3--3--3--3--3--3--3--3--|
E|------------------5---3--3------------------------------------------------|

e|--------------------------------------------------|
B|--------------------------------------------------|
G|-----------------------------7--7--7--7--7--7--7--|
D|--9\7---9\7---9--------------7--7--7--7--7--7--7--|
A|--7\5---7\5---7---7---5--5---5--5--5--5--5--5--5--|
E|------------------5---3--3------------------------|

Outro
e|-------------------|----------------|-------------------------|
B|-------------------|----------------|-------------------------|
G|--5----------------|--5-------------|---5---------------------|
D|--5/9\7---9\7------|--5/9\7---9\7---|---5---9\7---9\7---9\----|
A|--3/7\5---7\5------|--3/7\5---7\5---|---3---7\5---7\5---7\----|
E|-------------------|----------------|-------------------------|


************************************

| /   slide up
| \   slide down
| h   hammer-on
| p   pull-off
| ~   vibrato
| +   harmonic
| p+  pinch harmonic
| x   Mute note
| b   Bend
| pb  Pre-bend
| br  Bend release
| pbr Pre-bend release
| brb Bend release bend

************************************
Intro

E

E  C  B G  C  D

E  C  B G  C  D

E  C  B G  C  D

E  C  B G  C  D

E  C  B G  C  D

E  C  B G  C  D

E  C  B G  C  D

E  C  B G  C  D

1st Verse

E             D       Dsus  D
  Out in the streets 

    A
the dogs are on the run 

     C              B     N.C.
the cats are all in heat 

E            D        Dsus  D
  out in the streets 

A
snakes are all around 

     C             B        C
you dirty rats are on their way 

      G              D                C    N.C.
they control you and they'll make you pay 

E  C  B G  C  D

E  C  B G  C  D

2nd Verse


 
E            D    Dsus  D
 Out in the night 

A
glaring eyes in darkness 

C             B    N.C.
tigers wanna fight 

E           D     Dsus  D
 out in the night 

A                       C             B           C
spiders all around you spinning webs and make you pray 

        G          D         C
tie you up and you can't get away 

1st Chorus

E   D     E    D  E     A  G
Bad boys running wild 

        D                          C
if you don't play along with their games 

E   D     E    D  E     A  G
bad boys running wild 

        D                       C   N.C.
and you better get out of their way 

E  C  B G  C  D

E  C  B G  C  D

E  C  B G  C  D

E  C  B G  C  D

3rd Verse

E              D      Dsus  D
   Out in the streets 

     A                      C               B    N.C.
the dogs are on the run the cats are all in heat 

E           D     Dsus  D
 out in the night 

A                        C                B        C
spiders all a-round you spinning webs and make you pray 

        G          D         C
tie you up and you can't get away 


2nd Chorus

E   D     E    D  E     A  G
Bad boys running wild 

        D                          C
if you don't play along with their games 

E   D     E    D  E     A  G
bad boys running wild 

        D                       C   
and you better get out of their way 

E   D     E    D  E     A  G
Bad boys running wild 

        D                          C
if you don't play along with their games 

E   D     E    D  E     A  G
bad boys running wild 

        D                       C   
and you better get out of their way 

Bridge

C	
way way way get out of the way 

Solo

E  D  A  C  B

E  D  A  C  B

C  G  D  C

3rd Chorus

E   D     E    D  E     A  G
Bad boys running wild 

        D                          C
if you don't play along with their games 

E   D     E    D  E     A  G
bad boys running wild 

        D                       C   
and you better get out of their way 

E   D     E    D  E     A  G
Bad boys running wild 

        D                          C
if you don't play along with their games 

E   D     E    D  E     A  G
bad boys running wild 

        D                       C   
and you better get out of their way 

Outro

E  D  E  D

C
way 

E  D  E  D

C
way 

E   D   E   D    E
get out of their way
comments
We did not receive enough feedback on this tab! Please rate:
print report bad tab
1 2 3 4 5
2 comments total.
0 reply
CinderellaFan14 wrote on June 5 2012, 04:08 pm

Really awesome song, and just another perfect tab from you dude! Note for note perfection, thanks so much! 5 STARS!

0 reply
Painnkiller wrote on April 4 2014, 01:31 am

What do you mean with " Heavy Overdrive"?, I was looking for mathias jabs gear, and there in this link it says that he used JCM800. http://www.fullinbloommusic.com/matthias_jabs.html

I want to post or [tab]
guest
You may want to rate the tab now too:
select rating
Please do not post tabs as comments. Select "correction" instead!