Oops, an error
Loading. Please wait.

Blackout Tab

ver1
ver1

Album

Whole song

More versions @911Tabs.com
14,925 views 18 this week
4 commentsread comments
1 2 3 4 5
accurate
x 9
Autoscroll
+/-
esc
set tempo
stop
WARNING: You are trying to view
                                    content from Ultimate-Guitar.com
                                    in an unauthorized application,
                                    which is prohibited.

                                    Please use an official Ultimate
                                    Guitar Tabs application for iPhone,
                                    iPad or Android to access legitimate
                                    chords, guitar, bass, and drum tabs
                                    from Ultimate-Guitar.com database.

                                    Type "ultimate guitar tabs" in Apple
                                    App Store's or Android Market's
                                    search to find the application.
I'm One Of The Scorpions Fans. My Name Is Hassan Nosrat Abadi,But It Isn't Important Because

              *****************************************************************
              *I'm One Of The Scorpions Fans And This Is Very Important For Me*
              *****************************************************************

           This Is The Full "Blackout" Album(1982) Tabs Of The Best Group "Scorpions"
                               Of Hard Rock&Havy Metal Music
 
              The "Blackout" Album Is One Of The best Album Of The "Scorpions"
  Whit Great Songs Like:Blackout,No One Like You,Dynamite,When The Smoke Is Going Down,...


                           ****************************************
                           *I'm Sure That Only Scorpions Can Do It*
                           ****************************************


Sond Track Listing:

1-Blackout 
2-Can't Live Without You 
3-No One Like You 
4-You Give Me All I Need 
5-Now! 
6-Dynamite 
7-Arizona 
8-China White 
9-When The Smoke Is Going Down 


                                            Tabs
           **********************************************************************

Song:"Blackout"
Artist:"Scorpions"
Album="Blackout"
Lyricist="Klaus Meine"
Composor="Klaus Meine, Herman Rarebell, Sonja Kittelsen"
Tuning="regular tuning"
Transcribed by="Rob Schenk"


Intro (Guitar 1):
-----------------------------
-----------------------------
-9-x-9-x-x-9-x-9-------------
-9-x-9-x-x-9-x-9--(Continue Pattern)
-7-x-7-x-x-7-x-7-------------
-----------------------------

Guitar 2
-------------------------------------------------------------
-------(4X-15-15-15-15-)-17-17-17-17-15-15-17-17-17-17-15-15-
-----------16-16-16-16---16-16-16-16-16-16-16-16-16-16-16-16-
-------------------------------------------------------------
-------------------------------------------------------------
-0-dive------------------------------------------------------

------------------------------
-15/13----------h-------------
-16/14--------0-5-dive--------
--------0-dive----------------
------------------------------
------------------------------

Verse

--------------------------------------------------------------
--------------------------------------------------------------
-9-x-9-x-9-x-9-x-9-x-9-x-12-x-12-x-12-x-5-x-5-x-5-x-5-x-5-x-5-
-9-x-9-x-9-x-9-x-9-x-9-x-12-x-12-x-12-x-5-x-5-x-5-x-5-x-5-x-5-
-7-x-7-x-7-x-7-x-7-x-7-x-10-x-10-x-10-x-3-x-3-x-2-x-3-x-3-x-3-
--------------------------------------------------------------

--------------------------------------------------------------
--------------------------------------------------------------
-9-x-9-x-9-x-9-x-9-x-9-x-12-x-12-x-12-x-5-x-5-x-5-x-5-x-5-x-5-
-9-x-9-x-9-x-9-x-9-x-9-x-12-x-12-x-12-x-5-x-5-x-5-x-5-x-5-x-5-
-7-x-7-x-7-x-7-x-7-x-7-x-10-x-10-x-10-x-3-x-3-x-2-x-3-x-3-x-3-
--------------------------------------------------------------

Prechorus

----------------------------------------------------------
----------------------------------------------------------
-7-x-5-x-5-x-5-x-5-x-5-x-5-x-7-x-5-x-5-x-5-x-5------------
-7-x-5-x-5-x-5-x-5-x-5-x-5-x-7-x-5-x-5-x-5-x-5------------
-5-x-3-x-3-x-2-x-3-x-3-x-3-x-5-x-3-x-3-x-3-x-3------------
----------------------------------------------------------

Chorus

----------------------------------
----------------------------------
-9-7------------------------9-7---
-9-7------------------------9-7---Repeat
-7-5-----3-2-0---0----------7-5---
-----0-0-------3---3-2-0-0--------

---------------------------------
---------------------------------
---------------------------------
---------------------------------
-----3-2-0----3-2-0----3-2-0-----
-0-0-------3v-------3v--------3b-

Rhythm During Solo

Follow Guitar 1 Intro,Then Prechorus


                                            Tabs
           **********************************************************************

Song:"Can't Live Without You"
Artist:"Scorpions"
Album="Blackout"
Lyricist="Klaus Meine"
Composor="Rudolf Schenker"
Tuning="Standard tuning"
Transcribed by="Mirsha"

Comments:
1-OK here is my version of can't live without you, i do it with an acoustical guitar 
somaybe some parts are wrong now the solo and the fills are very easy i will send to you 
soonor if someone knows the fills just put them
2-All Guitars W/Distor


---------------------------------------------------------------
---------------------------------------------------------------
---------------------------------------------------------------
---------------------------------------------------------------
--x-x-x-x-x-x-x-x-x-x-x-x-x-x---------------------(7)-(7)-7----
--x-x-x-x-x-x-x-x-x-x-x-x-x-x-5-5-5-5-5-5-5-5-5-5--5---5--5----
p.m.......................................grad. release
                        one two...................1,2,3,4



Guitar 1
----------------------------------------
----------------------------------------
----------------------------------------
----------------------------------------
----------------------------------------
----x-x-x-x-x-x-x-x-x-x-x-x-x-x---------
Guitar 2
-----------------------------------------
-----------------------------------------
---5-4--5-4-x-5-4--5-4-------------------
---5-5--5-5-x-5-5--5-5-------------------
-------x----------x----------------------
-------x----------x----------------------
Can't Live Without You



Verse
-----------------------------------------
-----------------------------------------
-----6--6---6--6---6--6------------------
-----7--7---7--7---7--7------------------
-----7--7---7--7---7--7------------------
-----5--5---5--5---5--5------------------
p.m...      .      .


-----5-5-5-5-----------5-5-5-5-------------5-5-5-5------------------------------------------
-----7-7-7-7--5-5-5-5--7-7-7-7--5-5-5-5----7-7-7-7--5-5-5-5---------------------------------
-----7-7-7-7--6-6-6-6--7-7-7-7--6-6-6-6----7-7-7-7--6-6-6-6---------------------------------
-----7-7-7-7--7-7-7-7--7-7-7-7--7-7-7-7----7-7-7-7--7-7-7-7--5-5-5-5-5-5-5-5-5-5-7-7-7-7-7-7
-----5-5-5-5--7-7-7-7--5-5-5-5--7-7-7-7----5-5-5-5--7-7-7-7--5-5-5-5-5-5-5-5-5-5-7-7-7-7-7-7
--------------5-5-5-5-----------5-5-5-5-------------5-5-5-5--3-3-3-3-3-3-3-3-3-3-5-5-5-5-5-5
Stand Up And.......


Rhythm Under Solo
----------------------------------------------
----------------------------------------------
----------------------------------------------
----7---5---3---5---7-7---5---3---5---7-7-----
----7---5---3---5---7-7---5---3---5---7-7-----
----5---3---1---3---5-5---3---1---3---5-5-----


                                            Tabs
           **********************************************************************

Song:"No One Like You"
Artist:"Scorpions"
Album="Blackout"
Lyricist="Klaus Meine"
Composor="Rudolf Schenker"
Tuning="regular tuning"
Transcribed by="Steve Wolfinbarger"

Comments:
This should be accurate.  If it doesnt sound right email me.
Good luck this is a great solo to learn.  It will sound best on a Gibson with Marshal amp!


Intro Solo:

Part 1
15b-----------------------------------------------------------------15------------------
----------------------------------------------------------------15b----(15)~~~~---------
----14--16--16b-r-14/12--14p12--------------14-16-16br-14s12----------------------------
--------------------------------14~~~~~-------------------------------------------------
----------------------------------------------------------------------------------------
----------------------------------------------------------------------------------------

Part 2
---------------17---------20---20b~~~---17---20---19p17---19p17--------17---------------
------17--20b------20p17------------------------------------------20-------20b~~~~~-----
-/17------------------------------------------------------------------------------------
----------------------------------------------------------------------------------------
----------------------------------------------------------------------------------------
----------------------------------------------------------------------------------------

Part 3
----------------------------------------------------------------------------------------
-19br--17------19b~~~~~~~~--------------------------------------------------------------
-----------19---------------------------------------------------------------------------
----------------------------------------------------------------------------------------
----------------------------------------------------------------------------------------
----------------------------------------------------------------------------------------


15b-----------------------------------------------------------------15------------------
----------------------------------------------------------------15b----(15)~~~~---------
----14--16--16b-r-14/16--14p12--------------14-16-16br-14s12----------------------------
--------------------------------14~~~~~-------------------------------------------------
----------------------------------------------------------------------------------------
----------------------------------------------------------------------------------------

Part 4
---------------17---------20b---20~~~---17---20p19p17---19p17------17-------------------
------17--20b------20p17---------------------------------------20b------20p17------17---
-/17---------------------------------------------------------------------------19-------
----------------------------------------------------------------------------------------
----------------------------------------------------------------------------------------
----------------------------------------------------------------------------------------
Part 4 cont.
--17------------------------------------------------------------------------------------
------20--19p17-------------------------------------17~~~~~~----------------------------
------------------19b-r--(19)p17------19-----17-----------------------------------------
----------------------------------------------------------------------------------------
----------------------------------------------------------------------------------------
----------------------------------------------------------------------------------------



Girl, Its been a long time that we've been apart, much to ling for a man who needs love.  
----------0-------------------------------------------------------0-----------------------0-----
-------------1---------------1----------------------------------------1-------------------------
-------2--------2--------2-----------------------------------2------------2-----------2---------
----2-------------0---3----------3----2---0---------------2------------------0----3-------------
-0---------------------------------------------3-------0----------------------------------------
------------------------------------------------------------------------------------------------

I've missed you since I've been away........
----------0--------------------------------------------------------0---------------0-----------0-
-------------1---------------1----------------------------------------1-----------------3--------
-------2--------2--------2------------------------------------0----------0-----------4-----4-----
----2-------------0---3--------3----2---0---------------2------------------0---2-----------------
-0---------------------------------------------2--3----------------------------------------------
-------------------------------------------------------------------------------------------------


---------------------------------------------------------------------------------------
---------------------------------------------------------------------------------------
---2--2---------------------2--2--------------------2--2-------------------------------
---2--2-----3--3----5--5----2--2----3--3----5--5----2--2---3--3---5--5---3------2------
---0--0-----3--3----3--3----0--0----3--3----5--5----0--0---3--3---5--5---3------2------
------------1--1----3--3------------1--1----3--3-----------1--1---3--3---1------0------


Solo:
---------------------------------------------------------------------------------------------
-------------------------------(semi harmonic)------------------------------------8b~~~~~~~--
---7(b-hold)------7-7-7-7-7-7-7-7-7-7-7-7(r)----(7b1/2) (7r)  p5 -7--5-----------------------
---------------------------------------------------------------------------------------------
---------------------------------------------------------------------------------------------
---------------------------------------------------------------------------------------------

----------------------------------------------------------------------------5-----------------
---------------------------------------------13b------------------------5-------8p5-----------
---------14b-----(14r)  p12----------14----------------------7---(7b)---------------8-7p5-----
(0)*-----------------------------14--------------------------------------------------------7--
----------------------------------------------------------------------------------------------
----------------------------------------------------------------------------------------------

-------------------------------------------------------------------------
-------------------------------------------------------------------------
--7p5--------------------------------------------------------------------
--------7p5--7---7p5-----------------------------------------------------
---------------------------7-6-5-3--------3b(slow)-----------------------
-------------------------------------------------------------------------


--17/20~~~~~~~----17-19-19b--17----------17----19/22b------------------17-------17-------
-----------------------------------20-------------------------------17-----20b------20b--
-----------------------------------------------------------(10) /17----------------------
-----------------------------------------------------------------------------------------
-----------------------------------------------------------------------------------------
-----------------------------------------------------------------------------------------

--17----------17----------17---------17---------17-----------17-20b--17--------17-20b--17-----17-
-------20b----------20b-------20b--------20b-------20b----------------------20b-----------20b----
-------------------------------------------------------------------------------------------------
-------------------------------------------------------------------------------------------------
-------------------------------------------------------------------------------------------------
-------------------------------------------------------------------------------------------------

-------------------------------------------------------------------------------------------------
-20b(hold)---20---20---20r-----20-20-20p17--------------17-h-20-p-17----------17-h-19-p-17-------
-----------------------------------------------------------------------19--------------------19--
-------------------------------------------------------------------------------------------------
-------------------------------------------------------------------------------------------------
-------------------------------------------------------------------------------------------------

------------------------------------------------------------------------------------------
-------------17-h-20-p-17----------17-h-20-p-17------------17--20-p-17----20b-------------
-------19--------------------20---------------------19------------------------------------
------------------------------------------------------------------------------------------
------------------------------------------------------------------------------------------
------------------------------------------------------------------------------------------


----17------------------------------------------------------------------------------
----------20-p-17---------17--------------------------------------------------------
--------------------20--------20-19--17---------------------------------------------
-------------------------------------------19--17-----------------------------------
----------------------------------------------------19-18-17-15b(hold)------15(r)---
------------------------------------------------------------------------------------
 
                                       Tabs And Chords
           **********************************************************************

Song:"You Give Me All I Need"
Artist:"Scorpions"
Album="Blackout"
Lyricist="Herman Rarebell"
Composor="Rudolf Schenker"
Tuning="regular tuning"
Transcribed by="Joseph"

Comments:
1-(For playing intro chords use the same picking as in Holiday.)
(I didn't write the rest of the intro because you'll need an electric guitar
for that part. Anyway I think it's quite easy, and the few notes I wrote will
give you a very good idea to get the rest.)
2-etc..Any corrections in the lyrics, if so mail them to em445924@sunserv.itesm.cem.mc
Enjoy it.


Intro:

  Am               /  Am              /  G            /  Am              /
E>----------------| >----------------| >-------------|------------------|
A>----------------| >----------------| >-------------|------------------|
D>----------------| >----------------| >-------------|------------------|
G>--2-------------| >--2-------------| >-------------|------------------|
b>-----1--3--3/5--| >-----1--3--3/5--| >--1--3--3/5--|---5/3------------|
e>----------------| >----------------| >-------------|------------------|
                   \                  \               \                  \

Song:

Am
Love is lie 
    Dm             F
why don't you see?
              G
You hurt me inside
                Am
You're killin' me
            Dm               F
It makes me sad all the time
              G
to see you around 
                Am
with all these guys     F
My heart's in pain
     G
I need you so
F
love's missin' 
     G
so please don't go
                  
                  Am G
You give me all I need
                  Am G
You give me all I need
                  Am G
You give me all I need
                  Am G
You give me all I need

       Am
Let's try again
          Dm          F
there's still romance
                   G 
It won't stop in your lie
          Am
take a chance
          Dm           F
there are so many ways
                 G
please don't forget it
        Am
anything


     F
My heart's in pain
     G
I need you so
       F
My love's missin' 
     G
so please don't go


                  Am G
You give me all I need
                  Am G
You give me all I need
                  Am G
You give me all I need
                  Am G
You give me all I need


(Solo)
Am   Dm   F   G
Am   Dm   F   G
Am

                  Am G
You give me all I need
                  Am G
You give me all I need
                  Am G
You give me all I need
                  Am G
You give me all I need
..      ..      ..      
..      ..      ..      
..      ..      ..      
..      ..      ..      
..      ..      ..



                                            Tabs
           **********************************************************************  

Song:"Now!"
Artist:"Scorpions"
Album="Blackout"
Lyricist="Klaus Meine, Herman Rarebell"
Composor="Rudolf Schenker"
Tuning="Standard tuning"
Transcribed by="Mirsha"


----------------------------------------------------------
----------------------------------------------------------
----5---x-x-x-x-5---5---x-x-x-x-5---5---x-x-x-x--5-5-5----
----5---x-x-x-x-5---5---x-x-x-x-5---5---x-x-x-x--5-5-5----
----3p0-x-x-x-x-3p0-3p0-x-x-x-x-3p0-3p0-x-x-x-x--3-3-3----
----------------------------------------------------------
This fig is played in the intro, verse and solo just play it like 188 times


--------------------------------------
--------------------------------------
--------------------------------------
------5-------------------------------
------5-------------------------------
------3-------------------------------
It's Gonna Be Wild


Solo:

------------------------------------------
------------------------------------------
------------------------------------------
------5-----------------------------------
------5dive w/trem. bar-------------------
------3-----------------------------------
At The End Of The Solo


------------------------------
------------------------------
---5------------7-----9-------
---5----5-------7-----9-------
---3----5-------5-----7-------
--------3---------------------
Gettin' Out Of Control........


                                       Tabs And Chords
           **********************************************************************

Song:"Dynamite"
Artist:"Scorpions"
Album="Blackout"
Lyricist="Klaus Meine, Herman Rarebell"
Composor="Rudolf Schenker"
Tuning="regular tuning"


Comments:
  ^                  |
1-| play "down"      | play "up"
  |                  V

  ^
2-! play "down" and stop the strings with your right hand (big light ?)
  !

  !
3-! guess...
  V


1.)
Em
Kick your ass to heaven
                     (D)
With Rock'n Roll tonight
      Em
I'll make this night a special one
		  (D)
Make you feel alright
          Em
Shoot my heat into your body
                D
Give ya all my size
     Em
I'm gonna beat the beat tonight
			 D
Come on let's break the ice


R:)
      Em  D
Dynamite
      Em  D
Dynamite
      Em  D
Dynamite
      Em  D
Dynamite


2.)
Em
Hit the top together
                (D)
Get ya with my spell
     Em
I'm gonna make my shot tonight
	         (D)
Take you down to hell
          Em
Eat your meat untill you're breathless
                  D
Twirl your hips around
     Em
I'm gonna break my neck tonight
		        D
I'll get you off the ground


R:)
      Em  D
Dynamite
      Em  D
Dynamite
      Em  D
Dynamite
      Em  D
Dynamite


3.)
Em
Get it ow or never
	              (D)
Let's get it really tight
       Em
We'll make this night a special one
                (D)
Make you feel alright
          Em
Shoot my heat into your body
                D
Give ya all my size
     Em
We gonna beat the beat tonight
		        D
Come on let's break the ice


R:)
      Em  D
Dynamite
      Em  D
Dynamite
      Em  D
Dynamite
      Em  D
Dynamite


Rudolf Plays This Riff In The Intro And Chorus:

e|-----------------|----------------|----------------|
 |-----------------|----------------|----------------|
 |-----------------|----------------|--5----9--9--7--|
 |--5-----5--5--5--|----------------|--5----9--9--7--|
 |--7-----7--7--7--|----7--7--5--2--|--3----7--7--5--|
E|--0-----8--8--7--|----5--5--3--0--|----------------|

 / 1.)            // 2.)                /
e|----------------|--------------------|
 |----------------|--------------------|
 |----4--4--5--4--|--7--7--7--7--7--7--|
 |----4--4--5--4--|--7--7--7--7--7--7--|
 |----2--2--3--2--|--5--5--5--5--5--5--|
E|----------------|--------------------|


Rhythm To The Solo:

 /  3x                                          /
e|-------------------|--------------------------||----------------|
 |-------------------|-----!-----!-----!-----!--||----------------|
 |--12----11--11--9--|--^--!--^--!--^--!--^--!--||--5----7--7--5--|
 |--12----11--11--9--|--!--!--!--!--!--!--!--!--||--5----7--7--5--|
 |--10-----9---9--7--|--!--V--!--V--!--V--!--V--||--3----5--5--3--|
E|-------------------|--------------------------||----------------|

e|----------------------|
 |----------------------|
 |----7--7--^--!--^--!--|
 |----7--7--!--!--!--!--|
 |----5--5--!--V--!--V--|
E|----------------------|


The Guitar Break:
     D
e|--------------------|--------------------------|
 |--^-----!--^--!--^--|-----!--^--!--^--!--^--!--|
 |--|--%--!--!--!--|--|--%--!--!--!--!--!--!--!--|
 |--|-----!--!--!--|--|-----!--!--!--!--!--!--!--|
 |--|-----V--!--V--|--|-----V--!--V--!--V--!--V--|
E|--------------------|--------------------------|

    |  |__|  |__|  |    |__|  |__|  |__|  |__|
    1  2     3     4    1     2     3     4


                                            Tabs
           **********************************************************************    

Song:"Arizona"
Artist:"Scorpions"
Album="Blackout"
Lyricist="Herman Rarebell"
Composor="Rudolf Schenker"
Tuning="regular tuning"
Transcribed by="Steve Wolfinbarger"


Comments:
1-I am going to try and add as much Scorpions songs as I can, because the best sounding band
should have dedicated fans like me!
2-Just the basics are availbale for now, Very easy stuff!
3-Arizona really was a blast, I was screwed up in a total mess, mind blowin all the way you
know just out a sight!


E---------------------------------------------------------------
B---------------------------------------------------------------
G------9-9---9-9---6-6-------------9-9-9--9-9---6-6------------- 
D-------9-9---9-9-6-6--7--9-9-------9-9-9--9-9---6-6---7--9-9---
A-------7-7---7-7---4-4--7--9-9-----7-7-7-7-7---4-4---7--9-9---- 
E------------------------5--7-7------------------------5--7-7--- 


                                            Tabs
           **********************************************************************  

Song:"China White"
Artist:"Scorpions"
Album="Blackout"
Lyricist="Klaus Meine"
Composor="Rudolf Schenker"
Tuning="regular tuning"
Transcribed by="Martin Wong"


Intro (Repeat Several Times):

--------------------------------------------------------
---9----9-9-9----/12------------------------------------
---9----9-9-9----/12------------------------------------
---9----9-9-9----/12------------------------------------
---7----7-7-7----/10------------------------------------
-0------------------------------------------------------

Main Riff:
------------------------------------------------------------------
----9-9-9--------9-9-9----------9-9-9----------9-9-9----5---7-----
----9-9-9--------9-9-9----------9-9-9----------9-9-9----5---7-----
----9-9-9---5b---9-9-9---7b-----9-9-9---8b-----9-9-9----5---7-----
----7-7-7--------7-7-7----------7-7-7----------7-7-7----3---5-----
-0-------------0-------------0--------------0-------------------0-

Right Before Solo:
------------------------------------------------------
-5---7-------5---7------5-----------------------------
-5---7-------5---7------5-----------------------------
-5---7-------5---7------5-----------------------------
-3---5-------3---5------3-----------------------------
------------------------------------------------------

Rhythm Under Solo:
------------------------------------------------------
------------------------------------------------------
------------7------5---7------------------------------
-5p4--------5------5---7------------------------------
-----5b--7-----7---3---5------------------------------
------------------------------------------------------

It's Up To You....
-----------------------------------------------------------
-----------------------------------------------------------
-4-----7--5--7--5--4----7--5--7--5--4----7--5--7--5--4-----
-4-----7--5--7--5--4----7--5--7--5--4----7--5--7--5--4-----
-2-----5--3--5--3--2----5--3--5--3--2----5--3--5--3--2-----
-----------------------------------------------------------

------------------------------------------------------
------------------------------------------------------
--7--5--7--5------7--5--7--5--------------------------
--7--5--7--5------7--5--7--5--------------------------
--5--3--5--3------5--3--5--3--------------------------
------------------------------------------------------


                                            Tabs
           ********************************************************************** 

Song:"When The Smoke Is Going Down"
Artist:"Scorpions"
Album="Blackout"
Lyricist="Klaus Meine"
Composor="Rudolf Schenker"
Tuning="regular tuning"
Transcribed by="James Bernhard"


Comments:
1-On my last post giving the transcription to this song ("When theSmoke is Going Down" by 
the Scorpions), the last note in the firstmeasure of Riff B was incorrect, as I noticed 
after listening to the CD.again.It should be:
2-During the verses, alternate between Riff B and Riff A.
3-Here 10/11      means slide from 10 to 11
       10/(12)    means play 10 and bend a whole step to 12
       10/(12)\10 means play 10, bend a whole step up, then release bend to come back down
       (22)\20    means pre-bend to 22, play, then release to 20

4-Vertical lines are not bar lines, but only divide things up logically


Riff A (Opening):

-----1--------3--1--0-----|-----1-----------0--------|--
--------3--------------3--|--------3-----------3-----|--
-----------2--------------|-----------2-----------2--|--
--0-----------------------|--------------------------|--
--------------------------|--1-----------3-----------|--
--------------------------|--------------------------|--


Riff B:

----1--------1--------0---|-----0--------0--------0--|--
-------3--------3---------|--------1--------1--------|--
----------2--------2------|-----------0--------0-----|--
-0------------------------|--------------------------|--
--------------------------|--3-----------------------|--
--------------------------|--------------------------|--


Chorus (with heavy distortion):

 A Maj                     D Min          Eb Maj             D Min
I climb the stage again tonight, and the place seems still alive

         (C Maj)        (D Min)
When the smoke is going down...



Also, Here's My Version Of The Solo (Not On The Previous Post):

----------------8---------|---------8--10/(12)\10------|-
---8--8--10/11------------|--10/11-----------------10--|-
-------------------9--10--|----------------------------|-
--------------------------|----------------------------|-
--------------------------|----------------------------|-
--------------------------|----------------------------|-


---------------15--------------|----------15/(17)\15----------|-
---15--17--18------17----------|--17--18--------------15--17--|-
-----------------------17------|------------------------------|-
---------------------------14--|------------------------------|-
-------------------------------|------------------------------|-
-------------------------------|------------------------------|-


                         (   Approx.   )
                         (1/4 step bend)
---17--18--20--22--20--22-----20--22----|--10--------|-
----------------------------------------|----10------|-
----------------------------------------|------10----|-
----------------------------------------|--------12--|-
----------------------------------------|------------|-
----------------------------------------|------------|-


---20--20--20--20--|--17/(18)\17------------------------------------
-------------------|--------------18--20--18--20--20/(22)--(22)\20--
-------------------|------------------------------------------------
-------------------|------------------------------------------------
-------------------|------------------------------------------------
-------------------|------------------------------------------------


---------------|----------------------|-
---18--17--18--|--18/(20)\18--17------|-
---------------|------------------19--|-
---------------|----------------------|-
---------------|----------------------|-
---------------|----------------------|-



                                            End
           **********************************************************************

                               I Think,Now You Sure Also That:

                                 **************************
                                 *Only Scorpions Can Do It*
                                 **************************
comments
print report bad tab
4 comments total. Showing first comments.
0 reply
musiclover 2 wrote on April 2 2004, 12:00 am

My Name Is Hassan Nosrat Abadi.I Send This Tab To You Before
Registering.And Now I Register With The Username"musiclover 2" and Want you to Register my User Name

0 reply
musiclover 2 wrote on April 2 2004, 12:00 am

Please Send Me An Activation Email.Thank You

0 reply
musiclover 2 wrote on April 3 2004, 12:00 am

There Is A Few Erers In This Tab.I Repair It And This Is Correct Tab:

I'm One Of The Scorpions Fans.My Name Is Hassan Nosrat Abadi,But It Isn't Important Beacause

*****************************************************************
*I'm One Of The Scorpions Fans And This Is Very Important For Me*
*****************************************************************

This Is The Full "Blackout" Album(1982) Tabs Of The Best Group "Scorpions"
Of Hard Rock&Heavy Metal Music

The "Blackout" Album Is One Of The best Album Of The "Scorpions"
Whit Great Songs Like:Blackout,No One Like You,Dynamite,When The Smoke Is Going Down,...


****************************************
*I'm Sure That Only Scorpions Can Do It*
****************************************


Sond Track Listing:

1-Blackout
2-Can't Live Without You
3-No One Like You
4-You Give Me All I Need
5-Now!
6-Dynamite
7-Arizona
8-China White
9-When The Smoke Is Going Down


Tabs
**********************************************************************

Song:"Blackout"
Artist:"Scorpions"
Album="Blackout"
Lyricist="Klaus Meine"
Composer="Klaus Meine, Herman Rarebell, Sonja Kittelsen"
Tuning="regular tuning"
Transcribed by="Rob Schenk"


Intro (Guitar 1):
------------------------------
------------------------------
-9-x-9-x-x-9-x-9-------------
-9-x-9-x-x-9-x-9--(Continue Pattern)
-7-x-7-x-x-7-x-7-------------
------------------------------

Guitar 2
------------------------------------------------------------------
-------(4X-15-15-15-15-)--17-17-17-17-15-15-17-17-17-17-15-15-
-----------16-16-16-16---16-16-16-16-16-16-16-16-16-16-16-16-
------------------------------------------------------------------
------------------------------------------------------------------
-0-dive-----------------------------------------------------------

------------------------------
-15/13----------h------------
-16/14--------0-5-dive--------
--------0-dive-----------------
------------------------------
------------------------------

Verse

----------------------------------------------------------------
----------------------------------------------------------------
-9-x-9-x-9-x-9-x-9-x-9-x-12-x-12-x-12-x-5-x-5-x-5-x-5-x-5-x-5-
-9-x-9-x-9-x-9-x-9-x-9-x-12-x-12-x-12-x-5-x-5-x-5-x-5-x-5-x-5-
-7-x-7-x-7-x-7-x-7-x-7-x-10-x-10-x-10-x-3-x-3-x-2-x-3-x-3-x-3-
-----------------------------------------------------------------

----------------------------------------------------------------
----------------------------------------------------------------
-9-x-9-x-9-x-9-x-9-x-9-x-12-x-12-x-12-x-5-x-5-x-5-x-5-x-5-x-5-
-9-x-9-x-9-x-9-x-9-x-9-x-12-x-12-x-12-x-5-x-5-x-5-x-5-x-5-x-5-
-7-x-7-x-7-x-7-x-7-x-7-x-10-x-10-x-10-x-3-x-3-x-2-x-3-x-3-x-3-
-----------------------------------------------------------------

Prechorus

------------------------------------------------------------
------------------------------------------------------------
-7-x-5-x-5-x-5-x-5-x-5-x-5-x-7-x-5-x-5-x-5-x-5------------
-7-x-5-x-5-x-5-x-5-x-5-x-5-x-7-x-5-x-5-x-5-x-5------------
-5-x-3-x-3-x-2-x-3-x-3-x-3-x-5-x-3-x-3-x-3-x-3------------
------------------------------------------------------------

Chorus

-----------------------------------
-----------------------------------
-9-7------------------------9-7---
-9-7------------------------9-7----Repeat
-7-5-----3-2-0---0----------7-5----
-----0-0-------3---3-2-0-0---------

----------------------------------
----------------------------------
----------------------------------
----------------------------------
-----3-2-0----3-2-0----3-2-0-----
-0-0-------3v-------3v--------3b-

Rhythm During Solo

Follow Guitar 1 Intro,Then Prechorus


Tabs
**********************************************************************

Song:"Can't Live Without You"
Artist:"Scorpions"
Album="Blackout"
Lyricist="Klaus Meine"
Composer="Rudolf Schenker"
Tuning="Standard tuning"
Transcribed by="Mirsha"

Comments:
1-OK here is my version of can't live without you, i do it with an acoustical guitar
somaybe some parts are wrong now the solo and the fills are very easy i will send to you
soonor if someone knows the fills just put them
2-All Guitars W/Distor


---------------------------------------------------------------
---------------------------------------------------------------
---------------------------------------------------------------
---------------------------------------------------------------
--x-x-x-x-x-x-x-x-x-x-x-x-x-x---------------------(7)-(7)-7----
--x-x-x-x-x-x-x-x-x-x-x-x-x-x-5-5-5-5-5-5-5-5-5-5--5---5--5----
p.m.......................................grad. release
one two...................1,2,3,4



Guitar 1
----------------------------------------
----------------------------------------
----------------------------------------
----------------------------------------
----------------------------------------
----x-x-x-x-x-x-x-x-x-x-x-x-x-x---------
Guitar 2
-----------------------------------------
-----------------------------------------
---5-4--5-4-x-5-4--5-4-------------------
---5-5--5-5-x-5-5--5-5-------------------
-------x----------x----------------------
-------x----------x----------------------
Can't Live Without You



Verse
-----------------------------------------
------------------------------------------
-----6--6---6--6---6--6------------------------
-----7--7---7--7---7--7-----------------------
-----7--7---7--7---7--7------------------------
-----5--5---5--5---5--5------------------------
p.m... . .


-----5-5-5-5-----------5-5-5-5-------------5-5-5-5------------------------------------------
-----7-7-7-7--5-5-5-5--7-7-7-7--5-5-5-5----7-7-7-7--5-5-5-5---------------------------------
-----7-7-7-7--6-6-6-6--7-7-7-7--6-6-6-6----7-7-7-7--6-6-6-6---------------------------------
-----7-7-7-7--7-7-7-7--7-7-7-7--7-7-7-7----7-7-7-7--7-7-7-7--5-5-5-5-5-5-5-5-5-5-7-7-7-7-7-7
-----5-5-5-5--7-7-7-7--5-5-5-5--7-7-7-7----5-5-5-5--7-7-7-7--5-5-5-5-5-5-5-5-5-5-7-7-7-7-7-7
--------------5-5-5-5-----------5-5-5-5-------------5-5-5-5--3-3-3-3-3-3-3-3-3-3-5-5-5-5-5-5
Stand Up And.......


Rhythm Under Solo
----------------------------------------------
----------------------------------------------
----------------------------------------------
----7---5---3---5---7-7---5---3---5---7-7-----
----7---5---3---5---7-7---5---3---5---7-7-----
----5---3---1---3---5-5---3---1---3---5-5-----


Tabs
**********************************************************************

Song:"No One Like You"
Artist:"Scorpions"
Album="Blackout"
Lyricist="Klaus Meine"
Composer="Rudolf Schenker"
Tuning="regular tuning"
Transcribed by="Steve Wolfinbarger"

Comments:
This should be accurate. If it doesnt sound right email me.
Good luck this is a great solo to learn. It will sound best on a Gibson with Marshal amp!


Intro Solo:

Part 1
15b-----------------------------------------------------------------15------------------
----------------------------------------------------------------15b----(15)~~~~---------
----14--16--16b-r-14/12--14p12--------------14-16-16br-14s12----------------------------
--------------------------------14~~~~~-------------------------------------------------
----------------------------------------------------------------------------------------
----------------------------------------------------------------------------------------

Part 2
---------------17---------20---20b~~~---17---20---19p17---19p17--------17---------------
------17--20b------20p17------------------------------------------20-------20b~~~~~-----
-/17------------------------------------------------------------------------------------
----------------------------------------------------------------------------------------
----------------------------------------------------------------------------------------
----------------------------------------------------------------------------------------

Part 3
----------------------------------------------------------------------------------------
-19br--17------19b~~~~~~~~--------------------------------------------------------------
-----------19--------------------------------------------------------------------------
----------------------------------------------------------------------------------------
----------------------------------------------------------------------------------------
----------------------------------------------------------------------------------------


15b-----------------------------------------------------------------15------------------
----------------------------------------------------------------15b----(15)~~~~---------
----14--16--16b-r-14/16--14p12--------------14-16-16br-14s12----------------------------
--------------------------------14~~~~~-------------------------------------------------
----------------------------------------------------------------------------------------
----------------------------------------------------------------------------------------

Part 4
---------------17---------20b---20~~~---17---20p19p17---19p17------17-------------------
------17--20b------20p17---------------------------------------20b------20p17------17---
-/17---------------------------------------------------------------------------19-------
----------------------------------------------------------------------------------------
----------------------------------------------------------------------------------------
----------------------------------------------------------------------------------------
Part 4 cont.
--17------------------------------------------------------------------------------------
------20--19p17-------------------------------------17~~~~~~----------------------------
------------------19b-r--(19)p17------19-----17-----------------------------------------
----------------------------------------------------------------------------------------
----------------------------------------------------------------------------------------
----------------------------------------------------------------------------------------



Girl, Its been a long time that we've been apart, much to ling for a man who needs love.
-----------0-------------------------------------------------------0-----------------------0-----
--------------1---------------1----------------------------------------1-------------------------
--------2--------2--------2-----------------------------------2------------2-----------2---------
-----2-------------0---3----------3----2---0---------------2------------------0----3-------------
--0---------------------------------------------3-------0---------------------------------------
-------------------------------------------------------------------------------------------------

I've missed you since I've been away........
-----------0--------------------------------------------------------0---------------0-----------0--
--------------1---------------1----------------------------------------1-----------------3---------
--------2--------2--------2------------------------------------0----------0-----------4-----4------
-----2-------------0---3--------3----2---0---------------2------------------0---2------------------
--0---------------------------------------------2--3-----------------------------------------------
---------------------------------------------------------------------------------------------------


---------------------------------------------------------------------------------------
---------------------------------------------------------------------------------------
---2--2---------------------2--2--------------------2--2-------------------------------
---2--2-----3--3----5--5----2--2----3--3----5--5----2--2---3--3---5--5---3------2------
---0--0-----3--3----3--3----0--0----3--3----5--5----0--0---3--3---5--5---3------2------
------------1--1----3--3------------1--1----3--3-----------1--1---3--3---1------0------


Solo:
----------------------------------------------------------------------------------------------
-------------------------------(semi harmonic)------------------------------------8b~~~~~~~---
---7(b-hold)------7-7-7-7-7-7-7-7-7-7-7-7(r)----(7b1/2) (7r) p5 -7--5-----------------------
---------------------------------------------------------------------------------------------
---------------------------------------------------------------------------------------------
---------------------------------------------------------------------------------------------

----------------------------------------------------------------------------5-----------------
---------------------------------------------13b------------------------5-------8p5-----------
---------14b-----(14r) p12----------14----------------------7---(7b)---------------8-7p5-----
(0)*-----------------------------14--------------------------------------------------------7--
----------------------------------------------------------------------------------------------
----------------------------------------------------------------------------------------------

-------------------------------------------------------------------------
-------------------------------------------------------------------------
--7p5--------------------------------------------------------------------
--------7p5--7---7p5-----------------------------------------------------
---------------------------7-6-5-3--------3b(slow)-----------------------
-------------------------------------------------------------------------


--17/20~~~~~~~----17-19-19b--17----------17----19/22b------------------17-------17-------
-----------------------------------20-------------------------------17-----20b------20b--
-----------------------------------------------------------(10) /17----------------------
-----------------------------------------------------------------------------------------
-----------------------------------------------------------------------------------------
-----------------------------------------------------------------------------------------

--17----------17----------17---------17---------17-----------17-20b--17--------17-20b--17-----17-
-------20b----------20b-------20b--------20b-------20b----------------------20b-----------20b----
-------------------------------------------------------------------------------------------------
-------------------------------------------------------------------------------------------------
-------------------------------------------------------------------------------------------------
-------------------------------------------------------------------------------------------------

-------------------------------------------------------------------------------------------------
-20b(hold)---20---20---20r-----20-20-20p17--------------17-h-20-p-17----------17-h-19-p-17-------
-----------------------------------------------------------------------19--------------------19--
-------------------------------------------------------------------------------------------------
-------------------------------------------------------------------------------------------------
-------------------------------------------------------------------------------------------------

------------------------------------------------------------------------------------------
-------------17-h-20-p-17----------17-h-20-p-17------------17--20-p-17----20b-------------
-------19--------------------20---------------------19------------------------------------
------------------------------------------------------------------------------------------
------------------------------------------------------------------------------------------
------------------------------------------------------------------------------------------


----17------------------------------------------------------------------------------
----------20-p-17---------17--------------------------------------------------------
--------------------20--------20-19--17---------------------------------------------
-------------------------------------------19--17-----------------------------------
----------------------------------------------------19-18-17-15b(hold)------15(r)---
------------------------------------------------------------------------------------

Tabs And Chords
**********************************************************************

Song:"You Give Me All I Need"
Artist:"Scorpions"
Album="Blackout"
Lyricist="Herman Rarebell"
Composer="Rudolf Schenker"
Tuning="regular tuning"
Transcribed by="Joseph"

Comments:
1-(For playing intro chords use the same picking as in Holiday.)
(I didn't write the rest of the intro because you'll need an electric guitar
for that part. Anyway I think it's quite easy, and the few notes I wrote will
give you a very good idea to get the rest.)
2-etc..Any corrections in the lyrics, if so mail them to em445924@sunserv.itesm.cem.mc
Enjoy it.


Intro:

Am / Am / G / Am /
E>----------------| >----------------| >-------------|------------------|
A>----------------| >----------------| >-------------|------------------|
D>----------------| >----------------| >-------------|------------------|
G>--2-------------| >--2-------------| >-------------|------------------|
b>-----1--3--3/5--| >-----1--3--3/5--| >--1--3--3/5--|---5/3------------|
e>----------------| >----------------| >-------------|------------------|
\ \ \ \

Song:

Am
Love is lie
Dm F
why don't you see?
G
You hurt me inside
Am
You're killin' me
Dm F
It makes me sad all the time
G
to see you around
Am
with all these guys F
My heart's in pain
G
I need you so
F
love's missin'
G
so please don't go

Am G
You give me all I need
Am G
You give me all I need
Am G
You give me all I need
Am G
You give me all I need

Am
Let's try again
Dm F
there's still romance
G
It won't stop in your lie
Am
take a chance
Dm F
there are so many ways
G
please don't forget it
Am
anything


F
My heart's in pain
G
I need you so
F
My love's missin'
G
so please don't go


Am G
You give me all I need
Am G
You give me all I need
Am G
You give me all I need
Am G
You give me all I need


(Solo)
Am Dm F G
Am Dm F G
Am

Am G
You give me all I need
Am G
You give me all I need
Am G
You give me all I need
Am G
You give me all I need
.. .. ..
.. .. ..
.. .. ..
.. .. ..
.. .. ..



Tabs
**********************************************************************

Song:"Now!"
Artist:"Scorpions"
Album="Blackout"
Lyricist="Klaus Meine, Herman Rarebell"
Composer="Rudolf Schenker"
Tuning="Standard tuning"
Transcribed by="Mirsha"


----------------------------------------------------------
----------------------------------------------------------
----5---x-x-x-x-5---5---x-x-x-x-5---5---x-x-x-x--5-5-5----
----5---x-x-x-x-5---5---x-x-x-x-5---5---x-x-x-x--5-5-5----
----3p0-x-x-x-x-3p0-3p0-x-x-x-x-3p0-3p0-x-x-x-x--3-3-3----
----------------------------------------------------------
This fig is played in the intro, verse and solo just play it like 188 times


--------------------------------------
--------------------------------------
--------------------------------------
------5-------------------------------
------5-------------------------------
------3-------------------------------
It's Gonna Be Wild


Solo:

------------------------------------------
------------------------------------------
------------------------------------------
------5-----------------------------------
------5dive w/trem. bar-------------------
------3-----------------------------------
At The End Of The Solo


------------------------------
------------------------------
---5------------7-----9-------
---5----5-------7-----9-------
---3----5-------5-----7-------
--------3---------------------
Gettin' Out Of Control........


Tabs And Chords
**********************************************************************

Song:"Dynamite"
Artist:"Scorpions"
Album="Blackout"
Lyricist="Klaus Meine, Herman Rarebell"
Composer="Rudolf Schenker"
Tuning="regular tuning"


Comments:
^ |
1-| play "down" | play "up"
| V

^
2-! play "down" and stop the strings with your right hand (big light ?)
!

!
3-! guess...
V


1.)
Em
Kick your ass to heaven
(D)
With Rock'n Roll tonight
Em
I'll make this night a special one
(D)
Make you feel alright
Em
Shoot my heat into your body
D
Give ya all my size
Em
I'm gonna beat the beat tonight
D
Come on let's break the ice


R:)
Em D
Dynamite
Em D
Dynamite
Em D
Dynamite
Em D
Dynamite


2.)
Em
Hit the top together
(D)
Get ya with my spell
Em
I'm gonna make my shot tonight
(D)
Take you down to hell
Em
Eat your meat untill you're breathless
D
Twirl your hips around
Em
I'm gonna break my neck tonight
D
I'll get you off the ground


R:)
Em D
Dynamite
Em D
Dynamite
Em D
Dynamite
Em D
Dynamite


3.)
Em
Get it ow or never
(D)
Let's get it really tight
Em
We'll make this night a special one
(D)
Make you feel alright
Em
Shoot my heat into your body
D
Give ya all my size
Em
We gonna beat the beat tonight
D
Come on let's break the ice


R:)
Em D
Dynamite
Em D
Dynamite
Em D
Dynamite
Em D
Dynamite


Rudolf Plays This Riff In The Intro And Chorus:

e|-----------------|----------------|----------------|
|-----------------|----------------|----------------|
|-----------------|----------------|--5----9--9--7--|
|--5-----5--5--5--|----------------|--5----9--9--7--|
|--7-----7--7--7--|----7--7--5--2--|--3----7--7--5--|
E|--0-----8--8--7--|----5--5--3--0--|----------------|

/ 1.) // 2.) /
e|----------------|--------------------|
|----------------|--------------------|
|----4--4--5--4--|--7--7--7--7--7--7--|
|----4--4--5--4--|--7--7--7--7--7--7--|
|----2--2--3--2--|--5--5--5--5--5--5--|
E|----------------|--------------------|


Rhythm To The Solo:

/ 3x /
e|-------------------|--------------------------||----------------|
|-------------------|-----!-----!-----!-----!--||----------------|
|--12----11--11--9--|--^--!--^--!--^--!--^--!--||--5----7--7--5--|
|--12----11--11--9--|--!--!--!--!--!--!--!--!--||--5----7--7--5--|
|--10-----9---9--7--|--!--V--!--V--!--V--!--V--||--3----5--5--3--|
E|-------------------|--------------------------||----------------|

e|----------------------|
|----------------------|
|----7--7--^--!--^--!--|
|----7--7--!--!--!--!--|
|----5--5--!--V--!--V--|
E|----------------------|


The Guitar Break:
D
e|--------------------|--------------------------|
|--^-----!--^--!--^--|-----!--^--!--^--!--^--!--|
|--|--%--!--!--!--|--|--%--!--!--!--!--!--!--!--|
|--|-----!--!--!--|--|-----!--!--!--!--!--!--!--|
|--|-----V--!--V--|--|-----V--!--V--!--V--!--V--|
E|--------------------|--------------------------|

| |__| |__| | |__| |__| |__| |__|
1 2 3 4 1 2 3 4


Tabs
**********************************************************************

Song:"Arizona"
Artist:"Scorpions"
Album="Blackout"
Lyricist="Herman Rarebell"
Composer="Rudolf Schenker"
Tuning="regular tuning"
Transcribed by="Steve Wolfinbarger"


Comments:
1-I am going to try and add as much Scorpions songs as I can, because the best sounding band
should have dedicated fans like me!
2-Just the basics are availbale for now, Very easy stuff!
3-Arizona really was a blast, I was screwed up in a total mess, mind blowin all the way you
know just out a sight!


E---------------------------------------------------------------
B---------------------------------------------------------------
G------9-9---9-9---6-6-------------9-9-9--9-9---6-6-------------
D-------9-9---9-9-6-6--7--9-9-------9-9-9--9-9---6-6---7--9-9---
A-------7-7---7-7---4-4--7--9-9-----7-7-7-7-7---4-4---7--9-9----
E------------------------5--7-7------------------------5--7-7---


Tabs
**********************************************************************

Song:"China White"
Artist:"Scorpions"
Album="Blackout"
Lyricist="Klaus Meine"
Composer="Rudolf Schenker"
Tuning="regular tuning"
Transcribed by="Martin Wong"


Intro (Repeat Several Times):

--------------------------------------------------------
---9----9-9-9----/12------------------------------------
---9----9-9-9----/12------------------------------------
---9----9-9-9----/12------------------------------------
---7----7-7-7----/10------------------------------------
-0------------------------------------------------------

Main Riff:
------------------------------------------------------------------
----9-9-9--------9-9-9----------9-9-9----------9-9-9----5---7-----
----9-9-9--------9-9-9----------9-9-9----------9-9-9----5---7-----
----9-9-9---5b---9-9-9---7b-----9-9-9---8b-----9-9-9----5---7-----
----7-7-7--------7-7-7----------7-7-7----------7-7-7----3---5-----
-0-------------0-------------0--------------0-------------------0-

Right Before Solo:
------------------------------------------------------
-5---7-------5---7------5-----------------------------
-5---7-------5---7------5-----------------------------
-5---7-------5---7------5-----------------------------
-3---5-------3---5------3-----------------------------
------------------------------------------------------

Rhythm Under Solo:
------------------------------------------------------
------------------------------------------------------
------------7------5---7------------------------------
-5p4--------5------5---7------------------------------
-----5b--7-----7---3---5------------------------------
------------------------------------------------------

It's Up To You....
-----------------------------------------------------------
-----------------------------------------------------------
-4-----7--5--7--5--4----7--5--7--5--4----7--5--7--5--4-----
-4-----7--5--7--5--4----7--5--7--5--4----7--5--7--5--4-----
-2-----5--3--5--3--2----5--3--5--3--2----5--3--5--3--2-----
-----------------------------------------------------------

------------------------------------------------------
------------------------------------------------------
--7--5--7--5------7--5--7--5--------------------------
--7--5--7--5------7--5--7--5--------------------------
--5--3--5--3------5--3--5--3--------------------------
------------------------------------------------------


Tabs
**********************************************************************

Song:"When The Smoke Is Going Down"
Artist:"Scorpions"
Album="Blackout"
Lyricist="Klaus Meine"
Composer="Rudolf Schenker"
Tuning="regular tuning"
Transcribed by="James Bernhard"


Comments:
1-On my last post giving the transcription to this song ("When theSmoke is Going Down" by
the Scorpions), the last note in the firstmeasure of Riff B was incorrect, as I noticed
after listening to the CD.again.It should be:
2-During the verses, alternate between Riff B and Riff A.
3-Here 10/11 means slide from 10 to 11
10/(12) means play 10 and bend a whole step to 12
10/(12)\10 means play 10, bend a whole step up, then release bend to come back down
(22)\20 means pre-bend to 22, play, then release to 20

4-Vertical lines are not bar lines, but only divide things up logically


Riff A (Opening):

-----1--------3--1--0-----|-----1-----------0--------|--
--------3--------------3--|--------3-----------3-----|--
-----------2--------------|-----------2-----------2--|--
--0-----------------------|--------------------------|--
--------------------------|--1-----------3-----------|--
--------------------------|--------------------------|--


Riff B:

----1--------1--------0---|-----0--------0--------0--|--
-------3--------3---------|--------1--------1--------|--
----------2--------2------|-----------0--------0-----|--
-0------------------------|--------------------------|--
--------------------------|--3-----------------------|--
--------------------------|--------------------------|--


Chorus (with heavy distortion):

A Maj D Min Eb Maj D Min
I climb the stage again tonight, and the place seems still alive

(C Maj) (D Min)
When the smoke is going down...



Also, Here's My Version Of The Solo (Not On The Previous Post):

----------------8---------|---------8--10/(12)\10------|-
---8--8--10/11------------|--10/11-----------------10--|-
-------------------9--10--|----------------------------|-
--------------------------|----------------------------|-
--------------------------|----------------------------|-
--------------------------|----------------------------|-


---------------15--------------|----------15/(17)\15----------|-
---15--17--18------17----------|--17--18--------------15--17--|-
-----------------------17------|------------------------------|-
---------------------------14--|------------------------------|-
-------------------------------|------------------------------|-
-------------------------------|------------------------------|-


( Approx. )
(1/4 step bend)
---17--18--20--22--20--22-----20--22----|--10--------|-
----------------------------------------|----10------|-
----------------------------------------|------10----|-
----------------------------------------|--------12--|-
----------------------------------------|------------|-
----------------------------------------|------------|-


---20--20--20--20--|--17/(18)\17------------------------------------
-------------------|--------------18--20--18--20--20/(22)--(22)\20--
-------------------|------------------------------------------------
-------------------|------------------------------------------------
-------------------|------------------------------------------------
-------------------|------------------------------------------------


---------------|----------------------|-
---18--17--18--|--18/(20)\18--17------|-
---------------|------------------19--|-
---------------|----------------------|-
---------------|----------------------|-
---------------|----------------------|-



End
**********************************************************************

I Think,Now You Sure Also That:

**************************
*Only Scorpions Can Do It*
**************************

I want to post or [tab]
guest
You may want to rate the tab now too:
select rating
Please do not post tabs as comments. Select "correction" instead!