Oops, an error
Loading. Please wait.

Blackout Tab

ver3
ver3

Album

Whole song

More versions @911Tabs.com
6,573 views 25 this week
no commentswrite comment
1 2 3 4 5
excellent!
x 3
Autoscroll
+/-
esc
set tempo
stop
Contributor
WARNING: You are trying to view
                                    content from Ultimate-Guitar.com
                                    in an unauthorized application,
                                    which is prohibited.

                                    Please use an official Ultimate
                                    Guitar Tabs application for iPhone,
                                    iPad or Android to access legitimate
                                    chords, guitar, bass, and drum tabs
                                    from Ultimate-Guitar.com database.

                                    Type "ultimate guitar tabs" in Apple
                                    App Store's or Android Market's
                                    search to find the application.
Transcribed by Brian Murtagh


Gtr I (E A D G B E) - 'Rhythm'
Gtr II (E A D G B E) - 'Lead'

 Intro
  Fast Rock Q=175
 4/4
  Gtr I
  E E E E E E E E   E E E E E E E E   E   E E E E E E E    E  E E E E E  E  E
|-----------------|-----------------|-------------------|----------------------|
|-----------------|-----------------|-------------------|----------------------|
|-9-x-x-9-x-x-9-x-|-9-x-x-9-x-x-9-x-|-9---x-x-9-x-x-9-x-|--9--x-x-9-x-x--9--x--|
|-9-x-x-9-x-x-9-x-|-9-x-x-9-x-x-9-x-|-9---x-x-9-x-x-9-x-|--9--x-x-9-x-x--9--x--|
|-7-x-x-7-x-x-7-x-|-7-x-x-7-x-x-7-x-|-7---x-x-7-x-x-7-x-|--7--x-x-7-x-x--7--x--|
|-----------------|-----------------|-------------------|----------------------|
|
| Gtr II
|                                     \5_________________________________/
| W                 W                 W                   +H.           +Q
|-----------------|-----------------|-------------------|----------------------|
|-----------------|-----------------|-------------------|----------------------|
|-----------------|-----------------|-------------------|----------------------|
|-----------------|-----------------|-------------------|----------------------|
|-----------------|-----------------|-------------------|----------------------|
|-----------------|-----------------|-0-----------------|-(0)-----------(0)----|


  Gtr I
   E  E  E  E  E  E  E  E    E  E  E  E  E  E  E  E
|-------------------------|-------------------------|
|-------------------------|-------------------------|
|--9--x--x--9--x--x--9--x-|--9--x--x--9--x--x--9--x-|
|--9--x--x--9--x--x--9--x-|--9--x--x--9--x--x--9--x-|
|--7--x--x--7--x--x--7--x-|--7--x--x--7--x--x--7--x-|
|-------------------------|-------------------------|
|
| Gtr II
|  E  E  E  E  E  E  E  E    E  E  E  E  E  E  E  E
|-------------------------|-------------------------|
|-15-15-15-15-15-15-15-15-|-15-15-15-15-15-15-15-15-|
|-16-16-16-16-16-16-16-16-|-16-16-16-16-16-16-16-16-|
|-------------------------|-------------------------|
|-------------------------|-------------------------|
|-------------------------|-------------------------|


   E  E  E  E E E  E E    E  E  E  E E E  E E
|----------------------|----------------------|
|----------------------|----------------------|
|--9--x--x--9-x-x--9-x-|--9--x--x--9-x-x--9-x-|
|--9--x--x--9-x-x--9-x-|--9--x--x--9-x-x--9-x-|
|--7--x--x--7-x-x--7-x-|--7--x--x--7-x-x--7-x-|
|----------------------|----------------------|
|
|  E  E  E  E Q    Q      E  E  E  E Q    Q
|----------------------|----------------------|
|-17-17-17-17-----15---|-17-17-17-17-----15---|
|-16-16-16-16-----16---|-16-16-16-16-----16---|
|----------------------|----------------------|
|----------------------|----------------------|
|----------------------|----------------------|


  Gtr I
   E  E  E  E  E  E  E  E    E  E  E  E  E  E  E  E
|-------------------------|-------------------------|
|-------------------------|-------------------------|
|--9--x--x--9--x--x--9--x-|--9--x--x--9--x--x--9--x-|
|--9--x--x--9--x--x--9--x-|--9--x--x--9--x--x--9--x-|
|--7--x--x--7--x--x--7--x-|--7--x--x--7--x--x--7--x-|
|-------------------------|-------------------------|
|
| Gtr II
|  E  E  E  E  E  E  E  E    E  E  E  E  E  E  E  E
|-------------------------|-------------------------|
|-15-15-15-15-15-15-15-15-|-15-15-15-15-15-15-15-15-|
|-16-16-16-16-16-16-16-16-|-16-16-16-16-16-16-16-16-|
|-------------------------|-------------------------|
|-------------------------|-------------------------|
|-------------------------|-------------------------|


   E  E  E  E E E  E E    W          +W
|----------------------|-----------|--------|
|----------------------|-----------|--------|
|--9--x--x--9-x-x--9-x-|--7--------|-(7)----|
|--9--x--x--9-x-x--9-x-|--7--------|-(7)----|
|--7--x--x--7-x-x--7-x-|--5--------|-(5)----|
|----------------------|-----------|--------|
|
|                                     \4
|  E  E  E  E Q    Q      W           W
|----------------------|-----------|--------|
|-17-17-17-17-----15---|-15--------|--------|
|-16-16-16-16-----16---|-14--------|--0-----|
|----------------------|-----------|--------|
|----------------------|-----------|--------|

|----------------------|-----------|--------|


 Verse
  Gtr I
  E E E E E E E E   E  E E E E E  E  E
|-----------------|--------------------|
|-----------------|--------------------|
|-9-x-x-9-x-x-9-x-|-9--x-x-9-x-x--9--x-|
|-9-x-x-9-x-x-9-x-|-9--x-x-9-x-x--9--x-|
|-7-x-x-7-x-x-7-x-|-7--x-x-7-x-x--7--x-|
|-----------------|--------------------|
|
| Gtr II
| W                 H.            E  E
|-----------------|--------------------|
|-----------------|--------------------|
|-----------------|--------------------|
|-----------------|--------------------|
|-----------------|--------------12s14-|
|-----------------|--------------------|


   E  E E  E E E   E   E   E E E E E E E E   E E E E E E E E
|------------------------|-----------------|-----------------|
|------------------------|-----------------|-----------------|
|-12--x-x-12-x-x--12---x-|-5-x-x-5-x-x-5-x-|-5-x-x-5-x-x-5-x-|
|-12--x-x-12-x-x--12---x-|-5-x-x-5-x-x-5-x-|-5-x-x-5-x-x-5-x-|
|-10--x-x-10-x-x--10---x-|-3-x-x-3-x-x-3-x-|-3-x-x-3-x-x-3-x-|
|------------------------|-----------------|-----------------|
|
|  ~~~
|  H.              Q       E E E E E E E E   E E E E E E E E
|------------------------|-----------------|-----------------|
|------------------------|-----------------|-----------------|
|-12---------------------|-5-x-x-5-x-x-5-x-|-5-x-x-5-x-x-5-x-|
|-12-------------[14]\---|-5-x-x-5-x-x-5-x-|-5-x-x-5-x-x-5-x-|
|------------------------|-3-x-x-3-x-x-3-x-|-3-x-x-3-x-x-3-x-|
|------------------------|-----------------|-----------------|


  Gtr I
  E E E E E E E E   E  E E E E E  E  E    E  E E  E E E   E   E
|-----------------|--------------------|------------------------|
|-----------------|--------------------|------------------------|
|-9-x-x-9-x-x-9-x-|-9--x-x-9-x-x--9--x-|-12--x-x-12-x-x--12---x-|
|-9-x-x-9-x-x-9-x-|-9--x-x-9-x-x--9--x-|-12--x-x-12-x-x--12---x-|
|-7-x-x-7-x-x-7-x-|-7--x-x-7-x-x--7--x-|-10--x-x-10-x-x--10---x-|
|-----------------|--------------------|------------------------|
|
| Gtr II
|                                         ~~~
| W                 H.            E  E    H.              Q
|-----------------|--------------------|------------------------|
|-----------------|--------------------|------------------------|
|-----------------|--------------------|-12---------------------|
|-----------------|--------------------|-12-------------[14]\---|
|-----------------|--------------12s14-|------------------------|
|-----------------|--------------------|------------------------|


  E E E E E E E E   E         E   E  E  E        E   E E
|-----------------|----------------------------------------|
|-----------------|----------------------------------------|
|-5-x-x-5-x-x-5-x-|-5---------x---x--5--x--------x---5-x---|
|-5-x-x-5-x-x-5-x-|-5---------x---x--5--x--------x---5-x---|
|-3-x-x-3-x-x-3-x-|-3---------x---x--3--x--------x---3-x---|
|-----------------|----------------------------------------|
|
| W                 S     +S  S S E  E  S    +S  S S E E
|-----------------|----------------------------------------|
|-----------------|----------------------------------------|
|-----------------|-9b10==(9)r9p7-7s[5]-7b9==(7)r7p5-------|
|-----------------|----------------------------------7-5---|
|-----------------|----------------------------------------|
|-----------------|----------------------------------------|


 Pre-Chorus
  Gtr I
  W          +W           E E E E E E E E   E E E E E E E E
|----------|------------|-----------------|-----------------|
|----------|------------|-----------------|-----------------|
|-7--------|-(7)--------|-5-x-x-5-x-x-5-x-|-5-x-x-5-x-x-5-x-|
|-7--------|-(7)--------|-5-x-x-5-x-x-5-x-|-5-x-x-5-x-x-5-x-|
|-5--------|-(5)--------|-3-x-x-3-x-x-3-x-|-3-x-x-3-x-x-3-x-|
|----------|------------|-----------------|-----------------|
|
| Gtr II
|                                                 ~     ~
| W           W           W                 E E E Q   E Q
|----------|------------|-----------------|-----------------|
|----------|------------|-----------------|-----------------|
|----------|------------|-----------------|-----------------|
|----------|------------|-----------------|-----------------|
|----------|------------|-----------------|-3-2-0-3---2-----|
|----------|------------|-----------------|-------------5---|


  Gtr I
  W          +W           E E E E E E E E   q  H.
|----------|------------|-----------------|----------|
|----------|------------|-----------------|----------|
|-7--------|-(7)--------|-5-x-x-5-x-x-5-x-|-5--------|
|-7--------|-(7)--------|-5-x-x-5-x-x-5-x-|-5--------|
|-5--------|-(5)--------|-3-x-x-3-x-x-3-x-|-3--------|
|----------|------------|-----------------|----------|
|
| W           W           W                 W
|----------|------------|-----------------|----------|
|----------|------------|-----------------|----------|
|----------|------------|-----------------|----------|
|----------|------------|-----------------|----------|
|----------|------------|-----------------|----------|
|----------|------------|-----------------|----------|


 Verse
  Gtr I
  E E E E E E      E  E   E E E E      E  E E   E    E  E E  E E E   E   E
|-----------------------|-------------------------|------------------------|
|-----------------------|-------------------------|------------------------|
|-9-x-x-9-x-x------9--x-|-9-x-x-9------x--x-9---x-|-12--x-x-12-x-x--12---x-|
|-9-x-x-9-x-x------9--x-|-9-x-x-9------x--x-9---x-|-12--x-x-12-x-x--12---x-|
|-7-x-x-7-x-x------7--x-|-7-x-x-7------x--x-7---x-|-10--x-x-10-x-x--10---x-|
|-----------------------|-------------------------|------------------------|
|
| Gtr II
|                                                    ~~~
| Q   E E E E     +E  E   E E E E     +Q.       E    H.              Q
|-----------------------|-------------------------|------------------------|
|-----------------------|-------------------------|------------------------|
|-----------------------|-------------------------|-12---------------------|
|-----------------------|-------5b5.5-(5)---------|-12-------------[14]\---|
|-----7p5---5b5.5-(5)---|-7p5-----------------/14-|------------------------|
|-0-------0-----------0-|-----0-------------------|------------------------|


  E E E E E E E E   E   E   E  E   E    E   E   E
|-----------------|------------------------------------|
|-----------------|------------------------------------|
|-5-x-x-5-x-x-5-x-|-5---x---x--5---x----x---5---x------|
|-5-x-x-5-x-x-5-x-|-5---x---x--5---x----x---5---x------|
|-3-x-x-3-x-x-3-x-|-3---x---x--3---x----x---3---x------|
|-----------------|------------------------------------|
|
| W                 S S S S E  S S S  S S S S S S S
|-----------------|------------------------------------|
|-----------------|-5h8p5h8-x/-8p5-x/-5h8p5-x-5h8p5----|
|-----------------|------------------------------------|
|-----------------|------------------------------------|
|-----------------|------------------------------------|
|-----------------|------------------------------------|


  Gtr I
  E E E E E E      E  E   E E E E      E  E E   E    E  E E  E E E   E   E
|-----------------------|-------------------------|------------------------|
|-----------------------|-------------------------|------------------------|
|-9-x-x-9-x-x------9--x-|-9-x-x-9------x--x-9---x-|-12--x-x-12-x-x--12---x-|
|-9-x-x-9-x-x------9--x-|-9-x-x-9------x--x-9---x-|-12--x-x-12-x-x--12---x-|
|-7-x-x-7-x-x------7--x-|-7-x-x-7------x--x-7---x-|-10--x-x-10-x-x--10---x-|
|-----------------------|-------------------------|------------------------|
|
| Gtr II
|                                                    ~~~
| Q   E E E E     +E  E   E E E E     +Q.       E    H.              Q
|-----------------------|-------------------------|------------------------|
|-----------------------|-------------------------|------------------------|
|-----------------------|-------------------------|-12---------------------|
|-----------------------|-------5b5.5-(5)---------|-12-------------[14]\---|
|-----7p5---5b5.5-(5)---|-7p5-----------------/14-|------------------------|
|-0-------0-----------0-|-----0-------------------|------------------------|


  E E E E E E E E    E   E   E   E       E   E        E  E
|-----------------|------------------------------------------|
|-----------------|------------------------------------------|
|-5-x-x-5-x-x-5-x-|--5---x---x---5-------x---x--------5--x---|
|-5-x-x-5-x-x-5-x-|--5---x---x---5-------x---x--------5--x---|
|-3-x-x-3-x-x-3-x-|--3---x---x---3-------x---x--------3--x---|
|-----------------|------------------------------------------|
|
|                                \0.5____________/
| W                  E   E   E   E      +E.     +S    Q
|-----------------|-------------<5>----(<5>)---(<5>)-<5>-----|
|-----------------|---------<5>------------------------------|
|-----------------|-<7>-<5>----------------------------------|
|-----------------|------------------------------------------|
|-----------------|------------------------------------------|
|-----------------|------------------------------------------|


 Pre-Chorus
  Gtr I
  W          +W           E E E E E E E E   E E E E E E E E
|----------|------------|-----------------|-----------------|
|----------|------------|-----------------|-----------------|
|-7--------|-(7)--------|-5-x-x-5-x-x-5-x-|-5-x-x-5-x-x-5-x-|
|-7--------|-(7)--------|-5-x-x-5-x-x-5-x-|-5-x-x-5-x-x-5-x-|
|-5--------|-(5)--------|-3-x-x-3-x-x-3-x-|-3-x-x-3-x-x-3-x-|
|----------|------------|-----------------|-----------------|
|
| Gtr II
|                                                 ~     ~
| W           W           W                 E E E Q   E Q
|----------|------------|-----------------|-----------------|
|----------|------------|-----------------|-----------------|
|----------|------------|-----------------|-----------------|
|----------|------------|-----------------|-----------------|
|----------|------------|-----------------|-3-2-0-3---2-----|
|----------|------------|-----------------|-------------5---|


  Gtr I
  W          +W           E E E E E E E E   q  H    Q
|----------|------------|-----------------|------------|
|----------|------------|-----------------|------------|
|-7--------|-(7)--------|-5-x-x-5-x-x-5-x-|-5-------9--|
|-7--------|-(7)--------|-5-x-x-5-x-x-5-x-|-5-------9--|
|-5--------|-(5)--------|-3-x-x-3-x-x-3-x-|-3-------7--|
|----------|------------|-----------------|------------|
|
| Gtr II
| W           W           W                 W
|----------|------------|-----------------|------------|
|----------|------------|-----------------|------------|
|----------|------------|-----------------|------------|
|----------|------------|-----------------|------------|
|----------|------------|-----------------|------------|
|----------|------------|-----------------|------------|


   Chorus
                                     1.,2.,3.
    Gtr I
       PM|                   PM|         PM|                   PM|
    q  E E E E E E   E E E E E E q    q  E E E E E E   E E E E E E Q
||-----------------|----------------|----------------|------------------||
||o----------------|----------------|----------------|-----------------o||
||--7--------------|-------------9--|-7--------------|-------------9----||
||--7--------------|-------------9--|-7--------------|-------------9----||
||o-5------3-2-0---|-0-----------7--|-5------3-2-0---|-0-----------7---o||
||-----0-0-------3-|---3-2-0-0-0----|----0-0-------3-|---3-2-0-0-0------||
|
|   Gtr II
|   W                W                W                W
||-----------------|----------------|----------------|------------------||
||o----------------|----------------|----------------|-----------------o||
||-----------------|----------------|----------------|------------------||
||-----------------|----------------|----------------|------------------||
||o----------------|----------------|----------------|-----------------o||
||-----------------|----------------|----------------|------------------||


  4.
  Gtr I
     PM|       ~~~~~~~~         ~~~
  q  E E E E E E   +H     E E E E
|----------------|----------------|
|----------------|----------------|
|-7--------------|----------------|
|-7--------------|----------------|
|-5------3-2-0---|--------3-2-0---|
|----0-0-------3-|-(3)----------3-|
|
| Gtr II
| W                 W
|----------------|----------------|
|----------------|----------------|
|----------------|----------------|
|----------------|----------------|
|----------------|----------------|
|----------------|----------------|


 ~~~~~
  +H     E E E E   +W             +H     +H
|----------------|--------------|---------------|
|----------------|--------------|---------------|
|----------------|--------------|---------------|
|----------------|--------------|---------------|
|--------3-2-0---|--------------|---------------|
|-(3)----------3-|-(3)b4--------|-(3)----(3)----|
|
|  W                W              W
|----------------|--------------|---------------|
|----------------|--------------|---------------|
|----------------|--------------|---------------|
|----------------|--------------|---------------|
|----------------|--------------|---------------|
|----------------|--------------|---------------|


 Pre-Verse
 4/4
  Gtr I
  E E E E E E E E   E E E E E E E E   E   E E E E E E E    E  E E E E E  E  E
|-----------------|-----------------|-------------------|----------------------|
|-----------------|-----------------|-------------------|----------------------|
|-9-x-x-9-x-x-9-x-|-9-x-x-9-x-x-9-x-|-9---x-x-9-x-x-9-x-|--9--x-x-9-x-x--9--x--|
|-9-x-x-9-x-x-9-x-|-9-x-x-9-x-x-9-x-|-9---x-x-9-x-x-9-x-|--9--x-x-9-x-x--9--x--|
|-7-x-x-7-x-x-7-x-|-7-x-x-7-x-x-7-x-|-7---x-x-7-x-x-7-x-|--7--x-x-7-x-x--7--x--|
|-----------------|-----------------|-------------------|----------------------|
|
| Gtr II
|                                     \5_________________________________/
| W                 W                 W                   +H.           +Q
|-----------------|-----------------|-------------------|----------------------|
|-----------------|-----------------|-------------------|----------------------|
|-----------------|-----------------|-------------------|----------------------|
|-----------------|-----------------|-------------------|----------------------|
|-----------------|-----------------|-------------------|----------------------|
|-----------------|-----------------|-0-----------------|-(0)-----------(0)----|


  Gtr I
   E  E  E  E  E  E  E  E    E  E  E  E  E  E  E  E
|-------------------------|-------------------------|
|-------------------------|-------------------------|
|--9--x--x--9--x--x--9--x-|--9--x--x--9--x--x--9--x-|
|--9--x--x--9--x--x--9--x-|--9--x--x--9--x--x--9--x-|
|--7--x--x--7--x--x--7--x-|--7--x--x--7--x--x--7--x-|
|-------------------------|-------------------------|
|
| Gtr II
|  E  E  E  E  E  E  E  E    E  E  E  E  E  E  E  E
|-------------------------|-------------------------|
|-15-15-15-15-15-15-15-15-|-15-15-15-15-15-15-15-15-|
|-16-16-16-16-16-16-16-16-|-16-16-16-16-16-16-16-16-|
|-------------------------|-------------------------|
|-------------------------|-------------------------|
|-------------------------|-------------------------|


   E  E  E  E E E  E E    E  E  E  E E E  E E
|----------------------|----------------------|
|----------------------|----------------------|
|--9--x--x--9-x-x--9-x-|--9--x--x--9-x-x--9-x-|
|--9--x--x--9-x-x--9-x-|--9--x--x--9-x-x--9-x-|
|--7--x--x--7-x-x--7-x-|--7--x--x--7-x-x--7-x-|
|----------------------|----------------------|
|
|  E  E  E  E Q    Q      E  E  E  E Q    Q
|----------------------|----------------------|
|-17-17-17-17-----15---|-17-17-17-17-----15---|
|-16-16-16-16-----16---|-16-16-16-16-----16---|
|----------------------|----------------------|
|----------------------|----------------------|
|----------------------|----------------------|


  Gtr I
   E  E  E  E  E  E  E  E    E  E  E  E  E  E  E  E
|-------------------------|-------------------------|
|-------------------------|-------------------------|
|--9--x--x--9--x--x--9--x-|--9--x--x--9--x--x--9--x-|
|--9--x--x--9--x--x--9--x-|--9--x--x--9--x--x--9--x-|
|--7--x--x--7--x--x--7--x-|--7--x--x--7--x--x--7--x-|
|-------------------------|-------------------------|
|
| Gtr II
|  E  E  E  E  E  E  E  E    E  E  E  E  E  E  E  E
|-------------------------|-------------------------|
|-15-15-15-15-15-15-15-15-|-15-15-15-15-15-15-15-15-|
|-16-16-16-16-16-16-16-16-|-16-16-16-16-16-16-16-16-|
|-------------------------|-------------------------|
|-------------------------|-------------------------|
|-------------------------|-------------------------|


   E  E  E  E E E  E E    W          +W
|----------------------|-----------|------------------------|
|----------------------|-----------|------------------------|
|--9--x--x--9-x-x--9-x-|--7--------|-(7)--------------------|
|--9--x--x--9-x-x--9-x-|--7--------|-(7)--------------------|
|--7--x--x--7-x-x--7-x-|--5--------|-(5)--------------------|
|----------------------|-----------|------------------------|
|
|                                          \0.5_____/
|  E  E  E  E Q    Q      W           Q    Q.       E   Q
|----------------------|-----------|------------------------|
|-17-17-17-17-----15---|-15--------|------------------------|
|-16-16-16-16-----16---|-14--------|--0---<5>------<5>-<5>--|
|----------------------|-----------|------------------------|
|----------------------|-----------|------------------------|
|----------------------|-----------|------------------------|


 Verse
  Gtr I
  E E E E E E      E  E   E E E E      E  E E   E    E  E E  E E E   E   E
|-----------------------|-------------------------|------------------------|
|-----------------------|-------------------------|------------------------|
|-9-x-x-9-x-x------9--x-|-9-x-x-9------x--x-9---x-|-12--x-x-12-x-x--12---x-|
|-9-x-x-9-x-x------9--x-|-9-x-x-9------x--x-9---x-|-12--x-x-12-x-x--12---x-|
|-7-x-x-7-x-x------7--x-|-7-x-x-7------x--x-7---x-|-10--x-x-10-x-x--10---x-|
|-----------------------|-------------------------|------------------------|
|
| Gtr II
|                                                    ~~~
| Q   E E E E     +E  E   E E E E     +Q.       E    H.              Q
|-----------------------|-------------------------|------------------------|
|-----------------------|-------------------------|------------------------|
|-----------------------|-------------------------|-12---------------------|
|-----------------------|-------5b5.5-(5)---------|-12-------------[14]\---|
|-----7p5---5b5.5-(5)---|-7p5-----------------/14-|------------------------|
|-0-------0-----------0-|-----0-------------------|------------------------|


  E E E E E E E E   E   E   E   E   E   E   E   E
|-----------------|-----------------------------------|
|-----------------|-----------------------------------|
|-5-x-x-5-x-x-5-x-|-5---x---x---5---x---x---5---x-----|
|-5-x-x-5-x-x-5-x-|-5---x---x---5---x---x---5---x-----|
|-3-x-x-3-x-x-3-x-|-3---x---x---3---x---x---3---x-----|
|-----------------|-----------------------------------|
|
| W                 S S S S S S S S S S S S S S S S
|-----------------|-----------------------------------|
|-----------------|-----------------------------------|
|-----------------|-0h5h7p0h7h9p7p0h5h7p5p0-----------|
|-----------------|-------------------------5h7p5-----|
|-----------------|-------------------------------7---|
|-----------------|-----------------------------------|


  Gtr I
  E E E E E E      E  E   E E E E      E  E E   E
|-----------------------|-------------------------|
|-----------------------|-------------------------|
|-9-x-x-9-x-x------9--x-|-9-x-x-9------x--x-9---x-|
|-9-x-x-9-x-x------9--x-|-9-x-x-9------x--x-9---x-|
|-7-x-x-7-x-x------7--x-|-7-x-x-7------x--x-7---x-|
|-----------------------|-------------------------|
|
| Gtr II
| Q   E E E E     +E  E   E E E E     +Q.       E
|-----------------------|-------------------------|
|-----------------------|-------------------------|
|-----------------------|-------------------------|
|-----------------------|-------5b5.5-(5)---------|
|-----7p5---5b5.5-(5)---|-7p5-----------------/14-|
|-0-------0-----------0-|-----0-------------------|


   E  E E  E E E   E   E   E E E E E E E E   E  E    E  E    E  E  E     E
|------------------------|-----------------|-------------------------------|
|------------------------|-----------------|-------------------------------|
|-12--x-x-12-x-x--12---x-|-5-x-x-5-x-x-5-x-|-5--x----x--5----x--x--5-----x-|
|-12--x-x-12-x-x--12---x-|-5-x-x-5-x-x-5-x-|-5--x----x--5----x--x--5-----x-|
|-10--x-x-10-x-x--10---x-|-3-x-x-3-x-x-3-x-|-3--x----x--3----x--x--3-----x-|
|------------------------|-----------------|-------------------------------|
|
|  ~~~
|  H.              Q       W                 E  Q       Q       E  Q
|------------------------|-----------------|-------------------------------|
|------------------------|-----------------|---15------15------15-15\------|
|-12---------------------|-----------------|---14b16---14b16---14-14b16\---|
|-12-------------[14]\---|-----------------|-------------------------------|
|------------------------|-----------------|-------------------------------|
|------------------------|-----------------|-------------------------------|


 Pre-Chorus
  Gtr I
  W          +W           E E E E E E E E   E E E E E E E E
|----------|------------|-----------------|-----------------|
|----------|------------|-----------------|-----------------|
|-7--------|-(7)--------|-5-x-x-5-x-x-5-x-|-5-x-x-5-x-x-5-x-|
|-7--------|-(7)--------|-5-x-x-5-x-x-5-x-|-5-x-x-5-x-x-5-x-|
|-5--------|-(5)--------|-3-x-x-3-x-x-3-x-|-3-x-x-3-x-x-3-x-|
|----------|------------|-----------------|-----------------|
|
| Gtr II
|                                                 ~     ~
| W           W           W                 E E E Q   E Q
|----------|------------|-----------------|-----------------|
|----------|------------|-----------------|-----------------|
|----------|------------|-----------------|-----------------|
|----------|------------|-----------------|-----------------|
|----------|------------|-----------------|-3-2-0-3---2-----|
|----------|------------|-----------------|-------------5---|


  Gtr I
  W          +W           E E E E E E E E   q  H    Q
|----------|------------|-----------------|------------|
|----------|------------|-----------------|------------|
|-7--------|-(7)--------|-5-x-x-5-x-x-5-x-|-5-------9--|
|-7--------|-(7)--------|-5-x-x-5-x-x-5-x-|-5-------9--|
|-5--------|-(5)--------|-3-x-x-3-x-x-3-x-|-3-------7--|
|----------|------------|-----------------|------------|
|
| Gtr II
| W           W           W                 W
|----------|------------|-----------------|------------|
|----------|------------|-----------------|------------|
|----------|------------|-----------------|------------|
|----------|------------|-----------------|------------|
|----------|------------|-----------------|------------|
|----------|------------|-----------------|------------|


   Chorus
                                     1.,2.,3.
    Gtr I
       PM|                   PM|         PM|                   PM|
    q  E E E E E E   E E E E E E q    q  E E E E E E   E E E E E E Q    4x
||-----------------|----------------|----------------|------------------||
||o----------------|----------------|----------------|-----------------o||
||--7--------------|-------------9--|-7--------------|-------------9----||
||--7--------------|-------------9--|-7--------------|-------------9----||
||o-5------3-2-0---|-0-----------7--|-5------3-2-0---|-0-----------7---o||
||-----0-0-------3-|---3-2-0-0-0----|----0-0-------3-|---3-2-0-0-0------||
|
|   Gtr II
|   W                W                W                W                4x
||-----------------|----------------|----------------|------------------||
||o----------------|----------------|----------------|-----------------o||
||-----------------|----------------|----------------|------------------||
||-----------------|----------------|----------------|------------------||
||o----------------|----------------|----------------|-----------------o||
||-----------------|----------------|----------------|------------------||


  4.
  Gtr I
     PM|       ~~~~~~~~         ~~~~~~~~
  q  E E E E E E   +H     E E E E   +H     E E E E
|----------------|----------------|----------------|
|----------------|----------------|----------------|
|-7--------------|----------------|----------------|
|-7--------------|----------------|----------------|
|-5------3-2-0---|--------3-2-0---|--------3-2-0---|
|----0-0-------3-|-(3)----------3-|-(3)----------3-|
|
| Gtr II
| W                 W                W
|----------------|----------------|----------------|
|----------------|----------------|----------------|
|----------------|----------------|----------------|
|----------------|----------------|----------------|
|----------------|----------------|----------------|
|----------------|----------------|----------------|


  +W             +H     +H
|--------------|---------------------|
|--------------|---------------------|
|--------------|---------------------|
|--------------|---------------------|
|--------------|---------------------|
|-(3)b4--------|-(3)----(3)----------|
|
|  W              H.         E  E
|--------------|---------------------|
|--------------|---------------------|
|--------------|---------------14b16-|
|--------------|---------------------|
|--------------|---------------------|
|--------------|---------------------|


 Guitar Solo
  Gtr I
   E  E     E     E  E     E     E  E       E     E  E     E     E  E     E     E
|----------------------------------------|----------------------------------------|
|----------------------------------------|----------------------------------------|
|----------------------------------------|----------------------------------------|
|--9--x-----x-----9--x-----x-----9--x----|--9-----x--x-----9-----x--x-----9-----x-|
|--7--x-----x-----7--x-----x-----7--x----|--7-----x--x-----7-----x--x-----7-----x-|
|--0--------------0--------------0-------|--0--------------0--------------0-------|
|
| Gtr II
|  E  S  S  E     E  S  S  E     E  S  S    E     E  S  S  E     E  S  S  E     E
|-12-------------12-------------12-------|-------12-------------12-------------12-|
|----15p12----------15p12----------15p12-|----------15p12----------15p12----------|
|----------14b16----------14b16----------|-14b16----------14b16----------14b16----|
|----------------------------------------|----------------------------------------|
|----------------------------------------|----------------------------------------|
|----------------------------------------|----------------------------------------|


   E     E     E     E      E      E  E     E
|-------------------------------------------------|
|-------------------------------------------------|
|-------------------------------------------------|
|--9-----x-----x-----9------x------x--9-----x-----|
|--9-----x-----x-----9------x------x--9-----x-----|
|--0-----------------0----------------0-----------|
|
|  S  S  S  S  S  S  S  S  +S   S  E  S  S  S  S
|-17p12-------------12-12-(12)-------17p12--------|
|-------15p12------------------12----------15p12--|
|-------------14p12---------------14--------------|
|-------------------------------------------------|
|-------------------------------------------------|
|-------------------------------------------------|


  Gtr I
   E     E   E   E              E  E E E
|----------------------------------------|
|----------------------------------------|
|----------------------------------------|
|--9-----x---x---9--------------x--x-9-x-|
|--9-----x---x---9--------------x--x-9-x-|
|--0-------------0-------------------0---|
|
| Gtr II
|                               ~~~~
|  Q        +E   S      S      +H
|-17b19====(17)-17pb18-17pb19-(17)-------|
|----------------------------------------|
|----------------------------------------|
|----------------------------------------|
|----------------------------------------|
|----------------------------------------|


   E  E    E  E  E     E   E       E       E     E  E  E  E  E  E   E
|---------------------------------------|-----------------------------|
|---------------------------------------|-----------------------------|
|---------------------------------------|-----------------------------|
|--9--x----x--9--x-----x---9-------x----|--9-----x--x--9--x--x--9---x-|
|-10--x----x-10--x-----x--10-------x----|-10-----x--x-10--x--x-10---x-|
|--0----------0------------0------------|--0-----------0--------0-----|
|
|                                                         ~~~
|  E  Q.         Q        +E       S  S    E     E  E  E  Q.        E
|---------------------------------------|-------------------------/12-|
|---------------------------------------|-15b17-12--------------------|
|-14-14b16------14b16====(14)pb16r14p12-|----------15-14-12-----------|
|---------------------------------------|-----------------------------|
|---------------------------------------|-----------------------------|
|---------------------------------------|-----------------------------|


  Gtr I
   E    E     E     E     E    E     E    E       E        E  E        E  E     E  E  E
|----------------------------------------------|----------------------------------------|
|----------------------------------------------|----------------------------------------|
|----------------------------------------------|----------------------------------------|
|-10----x-----x----10-----x----x----10----x----|--9--------x--x--------9--x-----x--9--x-|
|--7----x-----x-----7-----x----x-----7----x----|--7--------x--x--------7--x-----x--7--x-|
|----------------------------------------------|----------------------------------------|
|
| Gtr II
|  |---3---|  |---3----|  |---3---|  |---3---|    |--3--|     |--3--|
|  E  E    E  E  E     E  E  E    E  E  E    E    S  S  S  E  S  S  S  E  S  S  E  Q
|-15p12----------------------------------------|----------------------------------------|
|---------15-14p12-------15p12-----------------|----------------------------------------|
|---------------------14---------15-14p12------|-11h12p11-------------------------------|
|-------------------------------------------14-|----------14-12h14p12-------------------|
|----------------------------------------------|----------------------14-14p13p12-14\---|
|----------------------------------------------|----------------------------------------|


  E   E  E   E    E  E    E  E      E    E    E E  E  E E E
|---------------------------------|--------------------------|
|---------------------------------|--------------------------|
|---------------------------------|--------------------------|
|-9---x--x---9----x--x----9--x----|-9----x----x-9--x--x-9-x--|
|-7---x--x---7----x--x----7--x----|-7----x----x-7--x--x-7-x--|
|-0----------0------------0-------|-0-----------0-------0----|
|
|                                                  ~~~
| Q     +E   Q       Q       E      E   +S  S E E +H
|---------------------------------|--------------------------|
|---------------------------------|--------------------------|
|-2b3---(2)-[2]b3---[2]b3---[2]b3-|-2b4r(2)p0----------------|
|---------------------------------|-----------2-2-(2)--------|
|---------------------------------|--------------------------|
|---------------------------------|--------------------------|


  Gtr I
  E   E   E   E   E   E   E   E     E   E   E   E      E  E E E
|---------------------------------|-----------------------------|
|---------------------------------|-----------------------------|
|---------------------------------|-----------------------------|
|-9---x---x---9---x---x---9---x---|-9---x---x---9------x--x-9-x-|
|-9---x---x---9---x---x---9---x---|-9---x---x---9------x--x-9-x-|
|-0-----------0-----------0-------|-0-----------0-----------0---|
|
| Gtr II
|                                                      ~~~
| |--3--| |--3--| |--3--| |--3--|   |--3--| |--3--|
| E E   E E E   E E E   E E E   E   E E   E E E   E   +H
|---------------------------------|-----------------------------|
|---------------------------------|-----------------------------|
|---------------------------------|-4-----4-7-4---7b9-(7)-------|
|---------5-----5-5-4---5-7-5---7-|---7-------------------------|
|-7-5---7---7---------------------|-----------------------------|
|---------------------------------|-----------------------------|


   E  E    E  E    E  E     E   E     E     E E  E    E E  E      E
|----------------------------------|--------------------------------------|
|----------------------------------|--------------------------------------|
|----------------------------------|--------------------------------------|
|--9--x----x--9----x--x-----9---x--|--9-----x-x--9----x-x--9------x-------|
|-10--x----x-10----x--x----10---x--|-10-----x-x-10----x-x-10------x-------|
|--0----------0-------------0------|--0----------0---------0--------------|
|
|  E  Q       Q       Q        +E     E     E E  Q.        E     +S   S
|----------------------------------|-------15-----------------------------|
|-15-15------15------15-------(15)-|-15----15---15--------15--------------|
|----14b16---14b16---14b16r===(14)-|-14b16------14b16-----14b16r(14)p12---|
|----------------------------------|--------------------------------------|
|----------------------------------|--------------------------------------|
|----------------------------------|--------------------------------------|


  Gtr I
   E     E     E     E  E    E     E    E
|--------------------------------------------|
|--------------------------------------------|
|--------------------------------------------|
|-10-----x-----x----10--x----x----10----x----|
|--7-----x-----x-----7--x----x-----7----x----|
|--------------------------------------------|
|
| Gtr II
|                       |---3---|  |---3---|
|  E     S  S  E     E  E  E    E  E  E    E
|----------12-------12-----------------------|
|-------12----15b17----15p12------12---------|
|-14b16------------------------15----15p==12-|
|--------------------------------------------|
|--------------------------------------------|
|--------------------------------------------|


   E    E     E    E        E    E     E    E       W          +W
|------------------------------------------------|-----------|--------|
|------------------------------------------------|-----------|--------|
|------------------------------------------------|--7--------|-(7)----|
|--9----x-----x----9--------x----x-----9----x----|--7--------|-(7)----|
|--7----x-----x----7--------x----x-----7----x----|--5--------|-(5)----|
|------------------------------------------------|-----------|--------|
|
|                                                   ~~
|  |---3---|  |---3---|     |---3---|  |---3---|
|  E  E    E  E  E    E  a  E  E    E  E  E    E    W           W
|------------------------------------------------|-----------|--------|
|------------------------------------------------|-----------|--------|
|-12------12-------------------------------------|-----------|--------|
|----14------14p12-------------------------------|-----------|--------|
|--------------------14-12h14-12---10-12p10------|-----------|--x\----|
|---------------------------------------------12-|-10--------|--x\----|


  Gtr I
  E E E E E E E E   E E E E E E E E   W
|-----------------|-----------------|----------|
|-----------------|-----------------|----------|
|-5-x-x-5-x-x-5-x-|-5-x-x-5-x-x-5-x-|-7--------|
|-5-x-x-5-x-x-5-x-|-5-x-x-5-x-x-5-x-|-7--------|
|-3-x-x-3-x-x-3-x-|-3-x-x-3-x-x-3-x-|-5--------|
|-----------------|-----------------|----------|
|
| Gtr II
|                         ~     ~
| W                 E E E Q   E Q     W
|-----------------|-----------------|----------|
|-----------------|-----------------|----------|
|-----------------|-----------------|----------|
|-----------------|-----------------|----------|
|-----------------|-3-2-0-3---2-----|----------|
|-----------------|-------------5---|----------|


  +W           E E E E E E E E   q  H    Q
|------------|-----------------|-------------|
|------------|-----------------|-------------|
|-(7)--------|-5-x-x-5-x-x-5-x-|-5-------9---|
|-(7)--------|-5-x-x-5-x-x-5-x-|-5-------9---|
|-(5)--------|-3-x-x-3-x-x-3-x-|-3-------7---|
|------------|-----------------|-------------|
|
|  W           W                 W
|------------|-----------------|-------------|
|------------|-----------------|-------------|
|------------|-----------------|-------------|
|------------|-----------------|-------------|
|------------|-----------------|-------------|
|------------|-----------------|-------------|


    Gtr I
       PM|                   PM|         PM|                   PM|
    q  E E E E E E   E E E E E E q    q  E E E E E E   E E E E E E Q   12x
||-----------------|----------------|----------------|------------------||
||o----------------|----------------|----------------|-----------------o||
||--7--------------|-------------9--|-7--------------|-------------9----||
||--7--------------|-------------9--|-7--------------|-------------9----||
||o-5------3-2-0---|-0-----------7--|-5------3-2-0---|-0-----------7---o||
||-----0-0-------3-|---3-2-0-0-0----|----0-0-------3-|---3-2-0-0-0------||
|
|   Gtr II
|   W                W                W                W               12x
||-----------------|----------------|----------------|------------------||
||o----------------|----------------|----------------|-----------------o||
||-----------------|----------------|----------------|------------------||
||-----------------|----------------|----------------|------------------||
||o----------------|----------------|----------------|-----------------o||
||-----------------|----------------|----------------|------------------||

Duration Legend
---------------
W - whole; H - half; Q - quarter; E - 8th; S - 16th; T - 32nd; X - 64th; a - acciaccatura
+ - note tied to previous; . - note dotted; .. - note double dotted
Uncapitalized letters represent notes that are staccato (1/2 duration)
Irregular groupings are notated above the duration line
Duration letters will always appear directly above the note/fret number it represents the
duration for.  Duration letters with no fret number below them represent rests.  Multi-
bar rests are notated in the form Wxn, where n is the number of bars to rest for.  Low
melody durations appear below the staff

Tablature Legend
----------------
 h   - hammer-on
 p   - pull-off
 b   - bend
 pb  - pre-bend
 r   - bend release (if no number after the r, then release immediately)
 /\  - slide into or out of (from/to "nowhere")
 s   - legato slide
 S   - shift slide
 - natural harmonic
[n]  - artificial harmonic
n(n) - tapped harmonic
 ~   - vibrato
 tr  - trill
 T   - tap
 TP  - trem. picking
 PM  - palm muting
\n/  - tremolo bar dip; n = amount to dip
 \n  - tremolo bar down
 n/  - tremolo bar up
/n\  - tremolo bar inverted dip
 =   - hold bend; also acts as connecting device for hammers/pulls
 <> - volume swell (louder/softer)
 x   - on rhythm slash represents muted slash
 o   - on rhythm slash represents single note slash

Misc Legend
-----------
 |  - bar
||  - double bar
||o - repeat start
o|| - repeat end
*|  - double bar (ending)
 :  - bar (freetime)
 $  - Segno
 &  - Coda
Tempo markers -  = BPM(8/16=s8/s16), where s8 = swing 8ths, s16 = swing 16ths
comments
We did not receive enough feedback on this tab! Please rate:
print report bad tab
1 2 3 4 5
I want to post or [tab]
guest
You may want to rate the tab now too:
select rating
Please do not post tabs as comments. Select "correction" instead!