Oops, an error
Loading. Please wait.

Coast To Coast Tab

ver3
ver3

Whole song

More versions @911Tabs.com
978 views 3 this week
no commentswrite comment
1 2 3 4 5
please rate
Autoscroll
+/-
esc
set tempo
stop
Contributor
WARNING: You are trying to view
                                    content from Ultimate-Guitar.com
                                    in an unauthorized application,
                                    which is prohibited.

                                    Please use an official Ultimate
                                    Guitar Tabs application for iPhone,
                                    iPad or Android to access legitimate
                                    chords, guitar, bass, and drum tabs
                                    from Ultimate-Guitar.com database.

                                    Type "ultimate guitar tabs" in Apple
                                    App Store's or Android Market's
                                    search to find the application.
-----------------------------------------------------------------------------
                   
                      Scorpions - Coast To Coast (GUITAR)
                       
-----------------------------------------------------------------------------
Tabbed by: Scotto10

Tuning: Standard

=============================================================================



Guitar 1



     H.           E  E     Q.     Q    E  E  E      E  E  E  E   E  E  E  E   
E||---------------------|-----------------------|----------------------------|
B||---------------------|-----------------------|----------------------------|
G||---------------------|-----------------------|----------------------------|
D||------------------9--|--L------9-------------|---9-----9------9--------9--|
A||------------------7--|--L------7----7--7--7--|--10--7--9--7--10--7--7--7--|
E||---------------------|-----------------------|----------------------------|


  Q.     Q    E  E  E      E  E  E  E   E  E  E  E     Q.     Q    E  E  E   
-----------------------|----------------------------|-----------------------|
-----------------------|----------------------------|-----------------------|
-----------------------|----------------------------|-----------------------|
--L------9----------9--|---9-----9------9--------9--|--L------9-------------|
--L------7----7--7--7--|--10--7--9--7--10--7--7--7--|--L------7----7--7--7--|
-----------------------|----------------------------|-----------------------|


   E  E  E  E   E  E  E  E     Q.     Q    E  E  E   
----------------------------|-----------------------|
----------------------------|-----------------------|
----------------------------|-----------------------|
---9-----9------9--------9--|--L------9-------------|
--10--7--9--7--10--7--7--7--|--L------7----7--7--7--|
----------------------------|-----------------------|


   E  E  E  E   E  E  E  E     Q.     Q    E  E  E   
----------------------------|-----------------------|
----------------------------|-----------------------|
----------------------------|-----------------------|
---9-----9------9--------9--|--L------9-------------|
--10--7--9--7--10--7--7--7--|--L------7----7--7--7--|
----------------------------|-----------------------|


   E  E  E  E   E  E  E  E     Q.     Q    E  E  E   
----------------------------|-----------------------|
----------------------------|-----------------------|
----------------------------|-----------------------|
---9-----9------9--------9--|--L------9-------------|
--10--7--9--7--10--7--7--7--|--L------7----7--7--7--|
----------------------------|-----------------------|


   E  E  E  E   E  E  E  E     Q.     Q    E  E  E   
----------------------------|-----------------------|
----------------------------|-----------------------|
----------------------------|-----------------------|
---9-----9------9--------9--|--L------9-------------|
--10--7--9--7--10--7--7--7--|--L------7----7--7--7--|
----------------------------|-----------------------|


   E  E  E  E   E  E  E  E     Q.     Q    E  E  E   
----------------------------|-----------------------|
----------------------------|-----------------------|
----------------------------|-----------------------|
---9-----9------9--------9--|--L------9-------------|
--10--7--9--7--10--7--7--7--|--L------7----7--7--7--|
----------------------------|-----------------------|


   E  E  E  E   E  E  E  E     Q.     Q    E  E  E   
----------------------------|-----------------------|
----------------------------|-----------------------|
----------------------------|-----------------------|
---9-----9------9--------9--|--L------9-------------|
--10--7--9--7--10--7--7--7--|--L------7----7--7--7--|
----------------------------|-----------------------|


   E  E  E  E   E  E  E  E     Q.     Q    E  E  E   
----------------------------|-----------------------|
----------------------------|-----------------------|
----------------------------|-----------------------|
---9-----9------9--------9--|--L------9-------------|
--10--7--9--7--10--7--7--7--|--L------7----7--7--7--|
----------------------------|-----------------------|


   E  E  E  E   E  E  E  E     Q.     Q    E  E  E   
----------------------------|-----------------------|
----------------------------|-----------------------|
----------------------------|-----------------------|
---9-----9------9--------9--|--L------9-------------|
--10--7--9--7--10--7--7--7--|--L------7----7--7--7--|
----------------------------|-----------------------|


   E  E  E  E   E  E  E  E     Q.     Q    E  E  E   
----------------------------|-----------------------|
----------------------------|-----------------------|
----------------------------|-----------------------|
---9-----9------9--------9--|--L------9-------------|
--10--7--9--7--10--7--7--7--|--L------7----7--7--7--|
----------------------------|-----------------------|


   E  E  E  E   E  E  E  E     Q.     Q    E  E  E   
----------------------------|-----------------------|
----------------------------|-----------------------|
----------------------------|-----------------------|
---9-----9------9--------9--|--L------9-------------|
--10--7--9--7--10--7--7--7--|--L------7----7--7--7--|
----------------------------|-----------------------|


   E  E  E  E   E  E  E  E     Q.     Q    E  E  E   
----------------------------|-----------------------|
----------------------------|-----------------------|
----------------------------|-----------------------|
---9-----9------9--------9--|--L------9-------------|
--10--7--9--7--10--7--7--7--|--L------7----7--7--7--|
----------------------------|-----------------------|


   E  E  E  E   E  E  E  E     Q    E  E  H           Q    E  H         E   
----------------------------|----------------------|-----------------------|
----------------------------|----------------------|-----------------------|
----------------------------|----------------------|-----------------------|
---9-----9------9--------9--|-------------5--------|-----------------------|
--10--7--9--7--10--7--7--7--|-------7--------------|--3-------7~--------L--|
----------------------------|----------------------|-----------------------|


  E  E  E  E  H           E  E  E  H        E     Q    E  E  H         
-----------------------|-----------------------|----------------------|
-----------------------|-----------------------|----------------------|
-----------------------|--7--7-----9-----------|----------------------|
--------------5--------|--7--7-----9-----------|-------------5--------|
--L-----7--------------|--5--5-----7-----------|-------7--------------|
-----------------------|-----------------------|----------------------|


                                                   PM PM PM PM PM PM PM PM  
  Q    E  H         E     E  E  E  E   H           E  E  E  E  E  E  E  E   
-----------------------|------------------------|--------------------------|
-----------------------|------------------------|--------------------------|
-----------------------|--------9-----12--------|--------------------------|
-----------------------|--------9-----12--------|-----------------------7--|
--3-------7~--------L--|--L-----7-----10--------|--5--5--5--5--5--5--5--5--|
-----------------------|------------------------|--------------------------|


  PM PM PM PM PM PM PM                              
  E  E  E  E  E  E  E  E     Q    E  Q    E  E  E   
--------------------------|------------------------|
--------------------------|------------------------|
--7--7--7--7--7--7--7-----|------------------------|
--7--7--7--7--7--7--7-----|----------9-------------|
--5--5--5--5--5--5--5-----|----------7----7--7--7--|
--------------------------|------------------------|


   E  E  E  E   E  E  E  E     Q.     Q    E  E  E   
----------------------------|-----------------------|
----------------------------|-----------------------|
----------------------------|-----------------------|
---9-----9------9--------9--|--L------9-------------|
--10--7--9--7--10--7--7--7--|--L------7----7--7--7--|
----------------------------|-----------------------|


   E  E  E  E   E  E  E  E     Q.     Q    E  E  E   
----------------------------|-----------------------|
----------------------------|-----------------------|
----------------------------|-----------------------|
---9-----9------9--------9--|--L------9-------------|
--10--7--9--7--10--7--7--7--|--L------7----7--7--7--|
----------------------------|-----------------------|


   E  E  E  E   E  E  E  E     Q.     Q    E  E  E   
----------------------------|-----------------------|
----------------------------|-----------------------|
----------------------------|-----------------------|
---9-----9------9--------9--|--L------9-------------|
--10--7--9--7--10--7--7--7--|--L------7----7--7--7--|
----------------------------|-----------------------|


   E  E  E  E   E  E  E  E     Q.     Q    E  E  E   
----------------------------|-----------------------|
----------------------------|-----------------------|
----------------------------|-----------------------|
---9-----9------9--------9--|--L------9-------------|
--10--7--9--7--10--7--7--7--|--L------7----7--7--7--|
----------------------------|-----------------------|


   E  E  E  E   E  E  E  E     Q.     Q    E  E  E   
----------------------------|-----------------------|
----------------------------|-----------------------|
----------------------------|-----------------------|
---9-----9------9--------9--|--L------9-------------|
--10--7--9--7--10--7--7--7--|--L------7----7--7--7--|
----------------------------|-----------------------|


   E  E  E  E   E  E  E  E     Q.     Q    E  E  E   
----------------------------|-----------------------|
----------------------------|-----------------------|
----------------------------|-----------------------|
---9-----9------9--------9--|--L------9-------------|
--10--7--9--7--10--7--7--7--|--L------7----7--7--7--|
----------------------------|-----------------------|


   E  E  E  E   E  E  E  E     Q.     Q    E  E  E   
----------------------------|-----------------------|
----------------------------|-----------------------|
----------------------------|-----------------------|
---9-----9------9--------9--|--L------9-------------|
--10--7--9--7--10--7--7--7--|--L------7----7--7--7--|
----------------------------|-----------------------|


   E  E  E  E   E  E  E  E     Q    E  E  H           Q    E  H         E   
----------------------------|----------------------|-----------------------|
----------------------------|----------------------|-----------------------|
----------------------------|----------------------|-----------------------|
---9-----9------9--------9--|-------------5--------|-----------------------|
--10--7--9--7--10--7--7--7--|-------7--------------|--3-------7~--------L--|
----------------------------|----------------------|-----------------------|


  E  E  E  E  H           E  E  E  H        E     Q    E  E  H         
-----------------------|-----------------------|----------------------|
-----------------------|-----------------------|----------------------|
-----------------------|--7--7-----9-----------|----------------------|
--------------5--------|--7--7-----9-----------|-------------5--------|
--L-----7--------------|--5--5-----7-----------|-------7--------------|
-----------------------|-----------------------|----------------------|


  Q    E  H         E     E  E  E  E   H         
-----------------------|------------------------|
-----------------------|------------------------|
-----------------------|--------9-----12--------|
-----------------------|--------9-----12--------|
--3-------7~--------L--|--L-----7-----10--------|
-----------------------|------------------------|


   |--3--| |--3--| |--3-|  |--3-|  |--3-|  |--3--|  |--3-|  |--3--|  
   S  S  S S  S  S S  S S  S S  S  S S  S  S  S  S  S S  S  S  S  S  
--------------------------------------------------------------------|
---------------------------------------------10---------------10-12-|
-------------------------------------9-11-12----12-11-9-11-12-------|
-------------------9-10-9----9-10-12--------------------------------|
-----------9-10-12--------12----------------------------------------|
--12-10-12----------------------------------------------------------|


  |--3--|  |--3-|  |--3--|  |--3--|  |--3--|                 
  S  S  S  S S  S  S  S  S  S  S  S  S  S  S  E   E   S   S  
---------------------------------------------12--14--15p-12-|
---------------------10-12-13-12-10-12-13-15----------------|
--9-11-12-11-9-11-12----------------------------------------|
------------------------------------------------------------|
------------------------------------------------------------|
------------------------------------------------------------|


   Q.      Q     Q    E      W                     W                        
---L-------L\------------|---------------------|---------------------|-----|
-------------------------|---------------------|---------------------|-----|
-------------------------|--18\----------------|---------------------|-----|
-------------------------|---------------------|--15\----------------|-----|
-------------------------|---------------------|---------------------|-----|
-------------------------|---------------------|---------------------|-----|


-----|-----|-----|-----|-----|-----|-----|-----|-----|-----|-----|-----|
-----|-----|-----|-----|-----|-----|-----|-----|-----|-----|-----|-----|
-----|-----|-----|-----|-----|-----|-----|-----|-----|-----|-----|-----|
-----|-----|-----|-----|-----|-----|-----|-----|-----|-----|-----|-----|
-----|-----|-----|-----|-----|-----|-----|-----|-----|-----|-----|-----|
-----|-----|-----|-----|-----|-----|-----|-----|-----|-----|-----|-----|


   H.             E   E      Q.       H         E    
-----------------12--14--|---Lb---------------------|
--15b--------------------|-----------12--------12---|
-------------------------|---------------------14b--|
-------------------------|--------------------------|
-------------------------|--------------------------|
-------------------------|--------------------------|


   Q      E   E   E   E   E   E      E   E   E     E   S   S   S  E.   E    
---------------------------------|-----------------------------------------|
---L-----------------------------|-----------------------------------------|
---Lb----14--12--11--------------|-----------------------------------------|
---------------------12----------|-----------------------------------------|
-------------------------14--13--|--12--10--12br--10--13p-12p-10-----------|
---------------------------------|-------------------------------12----L\--|


  E   E    S  S   S  S   S  S   S  S  S  S  S  S  
----------12------------12-----------------------|
-------------15p-12--------15p-12----------------|
-----14b------------14b-----------15-14-12-------|
--x----------------------------------------14-12-|
-------------------------------------------------|
-------------------------------------------------|


   S  S  S  S  S  S  S  S  S  S  S  S  S  S  S  S  
--------------------------------------------------|
--------------------------------------------------|
--14-12-------------------------------------------|
--------14-12-------------12----------------------|
--------------14-14-13-14----14-12----12-14-13-12-|
-----------------------------------15-------------|


   E  E   E   E   E   Q.          H          E   E  E   E   
------------------------------|----------------------------|
------------------------------|----------------------------|
------------------------------|----------------------------|
------------------------------|----------------------------|
--14-----14--13--12--10~------|---------------------9--10--|
------------------------------|--10~---------L--12---------|


   E  E   E   E  E   E   E  E     Q    E  E  Q    E  E   
-------------------------------|------------------------|
-------------------------------|------------------------|
-----------------9--11--12--9--|--L---------------------|
------9--10--12----------------|------------------------|
--12---------------------------|-------7--5--7----------|
-------------------------------|------------------0-----|


  E  E  Q    E  E  Q       Q    E  E  Q    E  E     E  E  Q    E  E  Q     
------------------------|------------------------|------------------------|
------------------------|------------------------|------------------------|
------------------------|------------------------|------------------------|
-------------5--4--5----|------------------------|------------------------|
--7--5--7---------------|-------7--5--7----------|--7--5--7----5--4--5----|
------------------------|--0---------------0-----|------------------------|


  Q    E  E  Q    E  E     E  E  Q    E  E  Q       Q    E  E  Q    E  E   
------------------------|------------------------|------------------------|
------------------------|------------------------|------------------------|
------------------------|------------------------|------------------------|
------------------------|-------------5--4--5----|------------------------|
-------7--5--7----------|--7--5--7---------------|-------7--5--7----------|
--0---------------0-----|------------------------|--0---------------0-----|


  E  E  Q    E  E  Q       E  E   E  E  Q    Q        Q    E  E  Q    Q      
------------------------|--------------------------|------------------------|
------------------------|--------------------------|------------------------|
------------------------|--------------------------|------------------------|
------------------------|--------------------------|------------------------|
--7--5--7----5--4--5----|-----5s--7--5--7----2~----|--L----3--2--3----------|
------------------------|--0-----------------------|------------------5~----|


  Q    E  E  Q    Q       S  S  S  S  E  E  E  E  E  E   
-----------------------|--------------------------------|
-----------------------|--------------------------------|
-----------------------|--------------------------------|
-----------------------|-----------------------4--------|
-------5--4--5----2----|--2s-3s-4s-5s-7--5--7-----7--5--|
--L--------------------|--------------------------------|


                                       |--3--|           
  Q    E  E  Q    Q        E  E  E  E  S  S  S E  E  E   
------------------------|-------------------------------|
------------------------|-------------------------------|
------------------------|-------------------------------|
-------7--5--7----4~----|--L--5--4--5--4h-5p-4-2--4--5--|
--7---------------------|-------------------------------|
------------------------|-------------------------------|


                               |--3--|                    
  Q    E  E  E  E  E  E     E  S  S  S E  E  E  E  E  E   
-------------------------|-------------------------------|
-------------------------|-------------------------------|
-------------------------|-------------------------------|
--L----5--4--5--4-----5--|-----4h-5p-4-2--4--5--7--5--4--|
-------------------2-----|-------------------------------|
-------------------------|-------------------------------|


                               |--3--|            |---3--|        
  Q     E  E  Q    E  E     E  S  S  S  E  E   E  S   S  S E  E   
--------------7----L--8--|--L--7h-8p-7---------------------------|
--------8----------------|-------------10--8--10--8h-10p-8-7-----|
-------------------------|------------------------------------7--|
--5~---------------------|---------------------------------------|
-------------------------|---------------------------------------|
-------------------------|---------------------------------------|


                                      |-----3----|             
  Q     E  E  Q.       E      E  E  S Q     Q    Q    S  S  S  
--------------7------/10--|---L--8----7----------7----8p-7----|
--------8-----------------|----------------10--------------10-|
--9~----------------------|-----------------------------------|
--------------------------|-----------------------------------|
--------------------------|-----------------------------------|
--------------------------|-----------------------------------|


                               |--3--|            |---3--|        
  Q     E  E  Q.     E      E  S  S  S  E  E   E  S   S  S E  E   
--7b----------7------8--|---L--7h-8p-7---------------------------|
--------8---------------|--------------10--8--10--8h-10p-8-7-----|
------------------------|-------------------------------------7--|
------------------------|---L------------------------------------|
------------------------|----------------------------------------|
------------------------|----------------------------------------|


                                          |--3--|                       
  Q    E  E  H            S  S S  S  S S  S  S  S S  S  S S  S  S S  S  
-------------7--------|------------------------------------------------|
-------8--------------|------------------------------------------------|
--9-------------------|------------------------------------------------|
----------------------|----------------9-10p-9----9---------------9-10-|
----------------------|--------9-10-12---------12---10-12-9-10-12------|
----------------------|--10-12-----------------------------------------|


   S S   S  S  S S  S  S S  S  S  S  S  S  E      W                 
----------------------------------------------|--------------------|
---------------------------------10-12-13-12--|---L----------------|
-----------------9-11----9-11-12--------------|--------------------|
-----9h-10-10-12------12----------------------|--------------------|
--12------------------------------------------|--------------------|
----------------------------------------------|--------------------|


   W                   Q    E  E  Q    E  E     E  E  Q    E  E  Q     
--------------------|------------------------|------------------------|
---L----------------|------------------------|------------------------|
--------------------|------------------------|------------------------|
--------------------|------------------------|------------------------|
--------------------|-------7--5--7----------|--7--5--7----5--4--5----|
--------------------|--0---------------0-----|------------------------|


  Q    E  E  Q    E  E     E  E  Q    E  E  Q       Q    E  E  Q    Q     
------------------------|------------------------|-----------------------|
------------------------|------------------------|-----------------------|
------------------------|------------------------|-----------------------|
------------------------|-------------5--4--5----|-----------------------|
-------7--5--7----------|--7--5--7---------------|-------7--5--7---------|
--0---------------0-----|------------------------|--0---------------0----|


                               |---3---|        |---3---|      
  E  E  E  E  E  E  Q       E  E   E   E  E  E  E   E   E  E   
-------------------------|------------------------------------|
-------------------------|------------------------------------|
-------------------------|------------------------------------|
-------------------------|------------------------------------|
--7--5--7-----5--4--5----|-----7p--5h--7--------7p--5h--7-----|
-------------------------|--0----------------0----------------|


     |---3---|        |---3---|           |---3---|                  
  E  E   E   E  E  E  E   E   E  E     E  E   E   E  E  E  E  E  E   
------------------------------------|-------------------------------|
------------------------------------|-------------------------------|
------------------------------------|-------------------------------|
------------------------------------|----------------4--5--4--------|
-----7p--5h--7--------7p--5h--7-----|-----7p--5h--7-----------7--5--|
--0----------------0----------------|--0----------------------------|


     |---3---|        |---3---|           |---3---|        |---3---|      
  E  E   E   E  E  E  E   E   E  E     E  E   E   E  E  E  E   E   E  E   
------------------------------------|------------------------------------|
------------------------------------|------------------------------------|
------------------------------------|------------------------------------|
------------------------------------|------------------------------------|
-----7p--5h--7--------7p--5h--7-----|-----7p--5h--7--------7p--5h--7-----|
--0----------------0----------------|--0----------------0----------------|


     |---3---|                       |---3---|        |---3---|      
  E  E   E   E  E  E  E  E  E     E  E   E   E  E  E  E   E   E  E   
-------------------------------|------------------------------------|
-------------------------------|------------------------------------|
-------------------------------|------------------------------------|
----------------4--5--4--------|------------------------------------|
-----7p--5h--7-----------7--5--|-----7p--5h--7--------7p--5h--7-----|
--0----------------------------|--0----------------0----------------|


     |---3---|        |---3---|                   
  E  E   E   E  E  E  E   E   E  E                
------------------------------------|-----|-----||
------------------------------------|-----|-----||
------------------------------------|-----|-----||
------------------------------------|-----|-----||
-----7p--5h--7--------7p--5h--7-----|-----|-----||
--0----------------0----------------|-----|-----||




Duration Legend
---------------
W - whole
H - half
Q - quarter
E - 8th
S - 16th
T - 32nd
X - 64th
. - note dotted
|-n-|  - n-tuplets


Tablature Legend
----------------
L - tied note
x - dead note
g - grace note
(n) - ghost note
> - accentuded note
NH - natural harmonic
AH - artificial harmonic
TH - tapped harmonic
SH - semi harmonic
PH - pitch harmonic
h - hammer on
p - pull off
b - bend
br - bendRelease
pb - preBend
pbr - preBendRelease
brb - bendReleaseBend
\n/ - tremolo bar dip
\n - tremolo bar dive
-/n - tremolo bar Release up
/n\ - tremolo bar inverted dip
/n - tremolo bar return
-\n - tremolo bar Release down
S - shift slide
s - legato slide
/ -  slide into from below or out of upwards
\ -  slide into from above or out of downwards
~ - vibrato
W - wide vibrato
tr - trill
TP - tremolo picking
T - tapping
S - slap
P - pop
< - fade in
^ - brush up
v - brush down
comments
We did not receive enough feedback on this tab! Please rate:
print report bad tab
1 2 3 4 5
I want to post or [tab]
guest
You may want to rate the tab now too:
select rating
Please do not post tabs as comments. Select "correction" instead!