Oops, an error
Loading. Please wait.

Holiday Tab

ver4
ver4

Intro

Solo

Whole song

Interactive

More versions @911Tabs.com
11,783 views 6 this week
2 commentsread comments
1 2 3 4 5
not so good
x 1
Autoscroll
+/-
esc
set tempo
stop
Contributor
Difficulty
advanced
Hey! There's an official Ultimate Guitar app which is ideal
for learning songs when you're away from computer. Get the app
WARNING: You are trying to view
                                    content from Ultimate-Guitar.com
                                    in an unauthorized application,
                                    which is prohibited.

                                    Please use an official Ultimate
                                    Guitar Tabs application for iPhone,
                                    iPad or Android to access legitimate
                                    chords, guitar, bass, and drum tabs
                                    from Ultimate-Guitar.com database.

                                    Type "ultimate guitar tabs" in Apple
                                    App Store's or Android Market's
                                    search to find the application.
Band:  Scorpions
Album: Lovedrive
Song:  Holiday

Copyright (c)  (RSA) (1979)
Version 1.0 - (07/03/06)

Transcribed By: Steve
Email:          stephen.elvidge1@ntlworld.com


.  - palm mute           /  - slide up to
\  - slide down to       ~  - vibrato
h  - hammer on           b  - Bend
p  - pull off            Suffixes for bend
t  - tap                 f  - full bend    h - half bend
ph - pinched harmonic    q  - quarter bend t - tap bend
*  - see comment         ^  - Hold bend    r release bend
x  - Stuccatto           ~  - vibrato bend
,  - slight palm mute    () - ghost note, sustained note
"  - tremolo note        <> - Trill

Tunning E A D G B E
 
 Intro(backing for first guitar solo)

  Guitar 1(clean/acoustic)

E[---------1---------------1-----0--1-----1-----------------------5---5-|
B[-----3-----3---3-----3-----3-------3------3---3-----3---3---2-------3-|
G[---2---2-----2-----2---2-----2-------2------2-----------------------2-|
D[-0------------------------------------------------2---2-------------2-|
A[-----------------3--------------1---------------0---------0---0---0---|
E[----------------------------------------------------------------------|
 [Guitar 2(clean/acoustic)
E[---------1---------------1-----0--1-----1-------------0---------5---5-|
B[-----3-----3---3-----3-----3-------3------3---3-----3---3---3----5--5-|
G[---2---2-----2-----2---2-----2-------2------2-------------2-------2---|
D[-0------------------------------------------------2-----------2-------|
A[-----------------3--------------1---------------0---------0-----------|
E[----------------------------------------------------------------------|


E---------3p1-0-1---------3p1-0-1---------0-1--------------------------|
B-----3---------------3---------------3-------3-----------3--------2-2-|
G---2---2-----------2---2-----------2---2-------2-----2---------2------|
D-0-------------------------------------------------2---2--2--2---2----|
A-----------------3---------------1---------------0---------0----------|
E----------------------------------------------------------------------|

E---1-0-1-5-1p0-1---1-0-1-5-1p0-1---1-0-1-5-1p0-1-5-0---0-5-0---0---|
B-----------------------------------------------------3-------3-----|
G-------------------------------------------------------------------|
D-0---------------------------------------------------------------2-|
A-----------------3---------------1---------------0-----------------|
E-------------------------------------------------------------------|

E-5-0---5-0----|
B-----2-----2--|
G--------------|
D--------------|
A--------------|
E--------------|

E---1-0-1-5-1p0-1---1-0-1-5-1p0-1---1-0-1-5-1p0-1-------------5-5-----|
B---------------------------------------------------3-----2-------2---|
G-----------------------------------------------------2---------------|
D-0-----------------------------------------------------2---2-------2-|
A-----------------3---------------1---------------0-------------------|
E---------------------------------------------------------------------|

E-5-0---0--|
B-----2----|
G----------|
D----------|
A----------|
E----------|

 Intro guitar solo(use vibrato)
 (clean/acoustic)
  D               C               A#              A

E-------------------------------------------------------------------|
B-------------------------------------------------------------------|
G-------------------------------------------------------------------|
D---------------------------------7----------5\---2------------5b---|
A-5---------------8-------------------------------------------------|
E-------------------------------------------------------------------|
  D               C               A#              A
E-------------------------------------------------------------------|
B------------------------------6--------------5-6-5--------8b----8--|
G---------------------7-7--7-9---7----------------------------------|
D-3----5---/7-------------------------------------------------------|
A-------------------------------------------------------------------|
E-------------------------------------------------------------------|
  D               C               A#              A
E-------------------------------------------------------------------|
B-5-6-5-------------5-6----------5--6-------------------------------|
G-------7---------------7-------------7-----------------------------|
D---------7-----------------------------7\5-------2----2-3-5---/7-5-|
A-------------------------------------------------------------------|
E-------------------------------------------------------------------|
  D               C               A#              A
E-------------------------------------------------------------------|
B-------------------------------5-6----8b-8b-8b---------------------|
G------------------7--------7-7-------------------------------------|
D-3-3/7-------7-7----7----------------------------------------------|
A--------5----------------------------------------------------------|
E-------------------------------------------------------------------|

 Verse

E---1-----1-----1---1-----1-----3--|
B-----3-----3---------2-----2---5--|
G-------2-----2---------3-----3----|
D-0---------------0----------------|
A----------------------------------|
E----------------------------------|

E---0-----2-----0-------------------1-----0-1-0---1---1-----0-1-0---1-|
B-----1-----1---1---2-----2-----0-----3---------3-------3---------3---|
G-------0-----0-------2-----2-----------2-----------------2-----------|
D-------2-----2---2-----2-----2---0-----------------0-----------------|
A-3-------------------------------------------------------------------|
E---------------------------------------------------------------------|

E---1-----1-----1---1-----1-----0--|
B-----3-----3---------2-----2------|
G-------2-----2---------3-----3----|
D-0---------------0----------------|
A----------------------------------|
E----------------------------------|

E---0-----2-----0-----------------|
B-----1-----1---1---2-----2-----0-|
G-------0-----0-------2-----2-----|
D-------2-----2---2-----2-----2---|
A-3-------------------------------|
E---------------------------------|


E---1-----1-----1---1-----1-----0--|
B-----3-----3---------2-----2------|
G-------2-----2---------3-----3----|
D-0---------------0----------------|
A----------------------------------|
E----------------------------------|


E-------------------1-----1-----0--|
B-----1-------1-------3-----3---3--|
G-------0-------0-------2-----2----|
D---2-------2-----0----------------|
A-3-------3------------------------|
E----------------------------------|

E---------3-----3-------3---------------------------------------|
B-----------3---3---------3-----------2-----2-----2-----2-------|
G-----0-------0-----0-------0-----2-----2---2-----2-----2-----4-|
D---0---0---------0---0-----0---2---2-----2-----2-----2-----2---|
A-----------------------------0---------------0-----0-----0-----|
E-3-------------3-----------------------------------------------|

 Rpt Verse




E---------1-----------1-0-1---0-1---------------------------5-----5-----|
B-----3-----3-----3---------------3-----3-----3-----3---------5-----5---|
G---2---2-------2---2---------------2---2---2-----2-----2-------2-----2-|
D-0-----------------------------------0---2-----2-----2---2-------------|
A-------------3-------------1-------------------------------------------|
E-----------------------------------------------------------------------|

E---1-0-1-3-1-0-1---3p1---0-1-------1-0-1-------------0---------5---5-----|
B-----------------------3-----3-----3-3---3---------3---3---3-----5---5---|
G-------------------------------2-------2---2-2---2-------2-------------2-|
D-0---------------------------------------------2-------------2-----------|
A-----------------3---------------1---------------------------------------|
E-------------------------------------------------------------------------|

E---1-0-1-3-1-0-1---3p1---0-1-------1-0-1---------------------------|
B-----------------------3-----3-----3-3---3---------3--(3)----------|
G-------------------------------2-------2---2-2---2----(2)----------|
D-0---------------------------------------------2------(2)----------|
A-----------------3---------------1---------------------------------|
E-------------------------------------------------------------------|

 Distorted
 
  Guitar 1
  [------------------PM---------------------]
E[--------------------------------------------|
B[--------------------------------------------|
G[--------------------------------------------|
D[--------------------------------------------|
A[-x-x-x-x-x-x-x-x-x-x-x-x-x-x-x-x-x-x-x-x-x--|
E[--------------------------------------------|
 [Guitar 2
 [  [PM]       [PM]      [PM]      [PM]   
E[--------------------------------------------|
B[--------------------------------------------|
G[-7-----7---7-----7---5-----5----------------|
D[-7-----7---7-----7---5-----5----------3--/--|
A[-5-5-5-5---5-5-5-5---3-3-3-3----1-1-1-1--/--|
E[--------------------------------------------| Rpt 7 X

 Lead enters 7th time
   ~~~~~~~~~~~~~~~~~~~~~~~~~~~~~~~~~~~~
E--------------------------------------------|
B-13b-------------13b-13b-------13-----------|
G--------------------------------------------|
D--------------------------------------------|
A--------------------------------------------|
E--------------------------------------------|


  Guitar 1
  [--------------PM----------------]
E[--------------------------------------------------------|
B[--------------------------------------------------------|
G[--------------------------------------------------------|
D[--------------------------------------------------------|
A[-x-x-x-x-x-x-x-x-x-x-x-x-x-x-x-x------------------------|
E[--------------------------------------------------------|
 [Guitar 2
 [  [PM]       [PM]      [PM]         
E[--------------------------------------------------------|
B[--------------------------------------------------------|
G[-7-----7---7-----7---5-----5----------------------------|
D[-7-----7---7-----7---5-----5----3----------(3)----------|
A[-5-5-5-5---5-5-5-5---3-3-3-3----1----------(1)----------|
E[--------------------------------1----------(1)----------|
 [Guitar 3
 [  ~~~~~~~~~~~~~~~~~~~~~~~~~~~~~~~
E[--------------------------------------------------------|
B[-13b-------------13b-13b-------13-----------------------|
G[--------------------------------------------------------|
D[--------------------------------------------------------|
A[--------------------------------------------------------|
E[--------------------------------------------------------|

 Acoustic guitar fill

E------------------------------------------------------------|
B------------------------------------------------------------|
G-0-2-3-5-3-2-3p2---3-2-----2--------------------------------|
D-----------------5-----3-5---2-3-2-3p2---2-3-5-3---(3)------|
A---------------------------------------5--------------------|
E------------------------------------------------------------|


 Outro

E---0-----1---------0-----0---1-------1---0---1---3-------0-----0---|
B-----3-----3---3-----3-----3---3---3-------3-------3-------3-------|
G-------2-----2---------2---------------2-------------2-------2---2-|
D-0---------------------------------------------2-------2-----------|
A-----------------3---------------1---------------------------------|
E-------------------------------------------------------------------|


E-5-----5-----5--|
B---5-----5------|
G----------------|
D-----2-----2----|
A----------------|
E----------------|

E---------1-----------1-0-1---0-1---------------------------5-----5-----5-|
B-----3-----3-----3---------------3-----3-----3-----3---------5-----5-----|
G---2---2-------2---2---------------2---2---2-----2-----2-------2-----2---|
D-0-----------------------------------0---2-----2-----2---2---------------|
A-------------3-------------1---------------------------------------------|
E-------------------------------------------------------------------------|

E---1-0-1-3-1-0-1---3p1---0-1-------1-0-1-------------0---------5---5-----5|
B-----------------------3-----3-----3-3---3---------3---3---3-----5---5----|
G-------------------------------2-------2---2-2---2-------2-------------2--|
D-0---------------------------------------------2-------------2------------|
A-----------------3---------------1----------------------------------------|
E--------------------------------------------------------------------------|

 Outro guitar solo with distortion

  D           C            A#            A
   ~~~~~~~~~~~~~~~~~~~~~~~~~~~~~~~~~~~~~~~~~~~~~~~~~~~~~~
E--------------------------------------------------------|
B-15----------------------17-----------------------------|
G------------(14)----------------------------------------|
D-------------0----------(0)------------14---------------|
A--------------------------------------------------------|
E--------------------------------------------------------|

  D            C          A#           A
        ~~~~~~~~~~~             ~~~~~~~~~~~~~~~~~~  
E--------------------------------------------------------|
B--------------------------------------------------------|
G----/7fb--r-------\----------7fb---r--6----------\------|
D-5/7--------------------/5/7------------------------5/7-|
A--------------------------------------------------------|
E--------------------------------------------------------|

  D            C          A#           A

E--------------------------------------------------------|
B--------------------------8fb----r----------------------|
G-7fb---r-----------\------------------9-----------------|
D-------------------------------------------------5/7----|
A--------------------------------------------------------|
E--------------------------------------------------------|

  D            C          A#           A

E--------------------------------------------------------|
B--------------------------------------------------------|
G-7fb---r-----------\------7fb----r----6--------\--------|
D----------------------5/7------------------------5/7----|
A--------------------------------------------------------|
E--------------------------------------------------------|

  D            C          A#           A

E--------------------------------------------------------|
B--------------------------8fb----r----------------------|
G-7fb---r------------------------------9-------9-10p9----|
D--------------------------------------------------------|
A--------------------------------------------------------|
E--------------------------------------------------------|

  D            C           A#          A

E--------------------------------------------------------|
B-------------10-----------6------6----5-----------------|
G-10----------9------------7------7----6-----------------|
D-12-----------------------------------------------------|
A--------------------------------------------------------|
E--------------------------------------------------------|

  D            C           A#                A

E--------------------------------------------------------|
B-------------10-----------66-66-66-66-66-6-5------------|
G-10----------9------------77-77-77-77-77-7-6------------|
D-12-----------------------------------------------------|
A--------------------------------------------------------|
E--------------------------------------------------------|

  D            C          A#           A

E--------------------------------------------------------|
B--------------------------------------------------------|
G-7fb---r-----------\------7fb----r----6--------\--------|
D----------------------5/7------------------------5/7----|
A--------------------------------------------------------|
E--------------------------------------------------------|

  D            C          A#           A

E--------------------------------------------------------|
B--------------------------8fb----r----------------------|
G-7fb---r------------------------------9-------9-10p9----|
D--------------------------------------------------------|
A--------------------------------------------------------|
E--------------------------------------------------------|

 To fade



END

comments
We did not receive enough feedback on this tab! Please rate:
print report bad tab
1 2 3 4 5
2 comments total.
0 reply
Guitars R us wrote on August 24 2006, 01:54 pm

i dont like it

0 reply
Binbags wrote on August 24 2006, 04:07 pm

Why because you can't play it? :-D

I want to post or [tab]
guest
You may want to rate the tab now too:
select rating
Please do not post tabs as comments. Select "correction" instead!