Oops, an error
Loading. Please wait.

It All Depends Tab

512 views 3 this week
1 commentread comment
1 2 3 4 5
excellent!
x 1
Autoscroll
+/-
esc
set tempo
stop
Contributor
Difficulty
intermediate
Hey! There's an official Ultimate Guitar app which is ideal
for learning songs when you're away from computer. Get the app
WARNING: You are trying to view
                                    content from Ultimate-Guitar.com
                                    in an unauthorized application,
                                    which is prohibited.

                                    Please use an official Ultimate
                                    Guitar Tabs application for iPhone,
                                    iPad or Android to access legitimate
                                    chords, guitar, bass, and drum tabs
                                    from Ultimate-Guitar.com database.

                                    Type "ultimate guitar tabs" in Apple
                                    App Store's or Android Market's
                                    search to find the application.
Band:  Scorpions
Album: Lonesome Crow
Song:  It All Depends


Copyright (c)  (RCA) (1972)
Version 1.0 - (19/04/06)

Transcribed By: Steve
Email:          stephen.elvidge1@ntlworld.com


.  - palm mute           /  - slide up to
\  - slide down to       ~  - vibrato
h  - hammer on           b  - Bend
p  - pull off            Suffixes for bend
t  - tap                 f  - full bend    h - half bend
ph - pinched harmonic    q  - quarter bend t - tap bend
*  - see comment         ^  - Hold bend    r release bend
x  - Stuccatto           ~  - vibrato bend
,  - slight palm mute    () - ghost note, sustained note
"  - tremolo note        <> - harmonic

Tunning E A D G B E
 
 Intro

  Guitar 1
                           ~~~~~~~
E[-------------------------------------|
B[-5----8----10---12-----\-8----(8)----|
G[-7b---10b--12b--14b----\-7----(7)----|
D[-------------------------------------|
A[-------------------------------------|
E[-------------------------------------|
 [Guitar 2
E[-------------------------------------|
B[-------------------------8----(8)----|
G[-1----4----6----8-\6\4---7----(7)----|
D[-2----5----7----9-\7\5---6----(6)----|
A[-2----5----7----9-\7\5---------------|
E[-0----3----5----7-\5\3---------------|

  Guitar 1
                           ~~~~~~~
E[-------------------------10----------|
B[-5----8----10---12-----\-13b---------|
G[-7b---10b--12b--14b----\-------------|
D[-------------------------------------|
A[-------------------------------------|
E[-------------------------------------|
 [Guitar 2
E[-------------------------------------|
B[-------------------------8----(8)----|
G[-1----4----6----8-\6\4---7----(7)----|
D[-2----5----7----9-\7\5---6----(6)----|
A[-2----5----7----9-\7\5---------------|
E[-0----3----5----7-\5\3---------------|

  Guitar 1
                           ~~~~~~~
E[-------------------------------------|
B[-5----8----10---12-----\-8----(8)----|
G[-7b---10b--12b--14b----\-7----(7)----|
D[-------------------------------------|
A[-------------------------------------|
E[---------------------------0--(0)----|
 [Guitar 2
E[-------------------------------------|
B[-------------------------8----(8)----|
G[-1----4----6----8-\6\4---7----(7)----|
D[-2----5----7----9-\7\5---6----(6)----|
A[-2----5----7----9-\7\5---------------|
E[-0----3----5----7-\5\3---------------|

  Guitar 1
                           ~~~~~~~~~~~~
E[-------------------------10----------|
B[-5----8----10---12-----\-13b---------|
G[-7b---10b--12b--14b----\-------------|
D[-------------------------------------|
A[-------------------------------------|
E[-------------------------------------|
 [Guitar 2
E[-------------------------------------|
B[-------------------------8----(8)----|
G[-1----4----6----8-\6\4---7----(7)----|
D[-2----5----7----9-\7\5---6----(6)----|
A[-2----5----7----9-\7\5---------------|
E[-0----3----5----7-\5\3---------------|


 Verse

  Guitar 1
        ~~~    ~~~h   h h   h   h   h   h   h
E[----------------------------------------------|
B[-------------8--------------------------------|
G[----7-6------7b-9-7-9-9p7-9p7-9p7-9p7-9p7-9p7-|
D[----------------------------------------------|
A[----------------------------------------------|
E[-0--------------------------------------------|
 [Guitar 2 Let notes ring out
E[----------------------------------------------|
B[----------------------------------------------|
G[----------------------------------------------|
D[----------------------------------------------|
A[----2-1------0--------------------------------|
E[-0-------------0-3----------------------------|


  Guitar 1
        ~~~    ~~~~~~~~~~~~~~~
E[------------------------------|
B[-------------8-10b8---------\-|
G[----7-6------7b---------------|
D[------------------------------|
A[------------------------------|
E[-0----------------------------|
 [Guitar 2 Let notes ring out
E[------------------------------|
B[------------------------------|
G[------------------------------|
D[------------------------------|
A[----2-1------0----------------|
E[-0-------------0-3------------|


  Guitar 1
        ~~~    ~~~~~~~~~~~~~~~
E[------------------------------|
B[-------------8-10b10b-------\-|
G[----7-6------7b---------------|
D[------------------------------|
A[------------------------------|
E[-0----------------------------|
 [Guitar 2 Let notes ring out
E[------------------------------|
B[------------------------------|
G[------------------------------|
D[------------------------------|
A[----2-1------0----------------|
E[-0-------------0-3------------|

  Guitar 1
        ~~~    ~~~h   h h   h   h   h   h   h
E[----------------------------------------------|
B[-------------8--------------------------------|
G[----7-6------7b-9-7-9-9p7-9p7-9p7-9p7-9p7-9p7-|
D[----------------------------------------------|
A[----------------------------------------------|
E[-0--------------------------------------------|
 [Guitar 2 Let notes ring out
E[----------------------------------------------|
B[----------------------------------------------|
G[----------------------------------------------|
D[----------------------------------------------|
A[----2-1------0--------------------------------|
E[-0-------------0-3----------------------------|


  Guitar 1
        ~~~    ~~~~~~~~~~~~~~~
E[------------------------------|
B[-------------8-10b8---------\-|
G[----7-6------7b---------------|
D[------------------------------|
A[------------------------------|
E[-0----------------------------|
 [Guitar 2 Let notes ring out
E[------------------------------|
B[------------------------------|
G[------------------------------|
D[------------------------------|
A[----2-1------0----------------|
E[-0-------------0-3------------|

  Guitar 1
        ~~~    ~~~~~~~~~~~~~~~
E[------------------------------|
B[-------------8-10b10b-------\-|
G[----7-6------7b---------------|
D[------------------------------|
A[------------------------------|
E[-0----------------------------|
 [Guitar 2 Let notes ring out
E[------------------------------|
B[------------------------------|
G[------------------------------|
D[------------------------------|
A[----2-1------0----------------|
E[-0-------------0-3------------|


 Chorus

E---------------------------------------------------------------------|
B---x--xxxxxxxxxx---x-xxxxxxxxxxx----xxxx----x-x-x-x-x--x--x--x--x-xx-|
G---x--xxxxxxxxxx---x-xxxxxxxxxxx----xxxx----x-x-x-x-x--x--x--x--x-xx-|
D---x--xxxxxxxxxx---x-xxxxxxxxxxx----xxxx----x-x-x-x-x--x--x--x--x-xx-|
A---x--xxxxxxxxxx---x-xxxxxxxxxxx----xxxx----x-x-x-x-x--x--x--x--x-xx-|
E-x---------------x---------------------------------------------------|


  Guitar 1
E[---------------------------------------------------------------------|
B[---x--xxxxx----------------------------------------------------------|
G[---x--xxxxx------9p7-7-x-xx----x-x---x-x-----|
D[---x--xxxxx----------------------------------------------------------|
A[---x--xxxxx----------------------------------------------------------|
E[-0-------------------------------------------------------------------|
 [Guitar 2
E[---------------------------------------------------------------------|
B[---x--xxxxxxxxxx---x-xxxxxxxxxxx----xxxx----x-x-x-x-x--x--x--x--x-xx-|
G[---x--xxxxxxxxxx---x-xxxxxxxxxxx----xxxx----x-x-x-x-x--x--x--x--x-xx-|
D[---x--xxxxxxxxxx---x-xxxxxxxxxxx----xxxx----x-x-x-x-x--x--x--x--x-xx-|
A[---x--xxxxxxxxxx---x-xxxxxxxxxxx----xxxx----x-x-x-x-x--x--x--x--x-xx-|
E[-x---------------x---------------------------------------------------|


 Guitar solo

    h   h   h                  ~~~~~
E------------------------------------|
B------------------------------------|
G------------------------------------|
D-----0-2p0----------7-7--7--6-6-----|
A-0-2-------2-5-4-4------------------|
E------------------------------------|

             ~~~~~   ~~~ ~~~~~~~~~~~~~~~~~~~     ~~~
E----------------------------------------------------------|
B-----------------8-8---10b-10b10b10br8b-------8p7---------|
G-------6-7--9---------------------------9b-9-------9-7\6--|
D-6-7-9----------------------------------------------------|
A----------------------------------------------------------|
E----------------------------------------------------------|

   ~~~~~~~~~~~~~~~   h        h                          ~~~~~~~
E----------------------------------------------------------------|
B----------------------------------------------------------------|
G-11fb--11fb-11fbr------------------11brp9----9-9p7---9-11b-11b--|
D-----------------12-14p12p11-12p11--------12-------9------------|
A----------------------------------------------------------------|
E----------------------------------------------------------------|

    h          ~~~~~~~~~ ~~~~~~~~~~~~~~~~~~~~~~~~~~~~~~~~~~~~
E------------------------10----10----10----10----------------|
B-8-10p8---8-10fb-10fb--r--10fb--10fb--10fb--10fb------------|
G--------9---------------------------------------------------|
D------------------------------------------------------------|
A------------------------------------------------------------|
E------------------------------------------------------------|

   ~~~~~~~~~~~~~~~~~~~~~~~~~~~~~~~~~~~~~~~~~~~  h         h       ~~
E-12b-12b-12b-12b----12b-12b------------------0-9p0-4-3-0-3p0-------|
B-----------------------------13b-13b-13b11br-----------------5-5-5-|
G-------------------------------------------------------------------|
D-------------------------------------------------------------------|
A-------------------------------------------------------------------|
E-------------------------------------------------------------------|

    h         h       ~~~~~~  h     h   h
E-0-7p0-4-3-0-3p0-----------5-7p5p0-4p0-3p0------|
B----------------/5-5-5---------------------55-5-|
G------------------------------------------------|
D------------------------------------------------|
A------------------------------------------------|
E------------------------------------------------|

   ~~~~~~~~~~~~~~~~~~~~~~~~~~~~~~       ~~~~~~~~~~~~~~~~~~~~~~~~~~~~
E-14bp12-14bp12-14b--14b14b-14br------------------------------------|
B--------------------------------15p12-12----13fb13-13fb13-13fb-13--|
G-------------------------------------------------------------------|
D-------------------------------------------------------------------|
A-------------------------------------------------------------------|
E-------------------------------------------------------------------|

   ~~~~~~~~~~~             ~~~~~~~~
E----------------------------------|
B-13fb13-13fbr\8-10p8---10-8-------|
G---------------------9------------|
D----------------------------------|
A----------------------------------|
E----------------------------------|

   ~~~~~~~~~~~~~~~~~~~~~~~~~~~~~~~~~~~~~~~       ~~~~~~~~~
E----15----15----15----15----15---------------------------|
B-15b---15b---15b---15b---15b---15br-12-------------------|
G------------------------------------12-----12-14b14b-----|
D----------------------------------------14---------------|
A---------------------------------------------------------|
E---------------------------------------------------------|

   ~~~~~~~~~~~~~~~~~~~~~~~         ~~~~~~~~~~~~     
E----------------------------------------------|
B-13fb-13fb-13fbr----------------8-------------|
G-----------------12b-12b-r\-7-9-9-9-----------|
D----------------------------------------------|
A----------------------------------------------|
E----------------------------------------------|

                              ~~~~~                            ~~~~~~
E--------------------------------------------------------------------|
B-3p2p0-3p2p0-3p2p0-3p2p0-2-3-5----3p2p0-3p2p0-3p2p0-3p2p0-3---------|
G------------------------------------------------------------4-1-----|
D--------------------------------------------------------------------|
A--------------------------------------------------------------------|
E--------------------------------------------------------------------|

                              ~~~~~~~~~~~~~~~                            
E----------------------------------------------|
B-3p2p0-3p2p0-3p2p0-3p2p0-2-3-5--8---------\---|
G--------------------------------7---------\---|
D----------------------------------------------|
A----------------------------------------------|
E----------------------------------------------|

 Backing for solo

E-------------------|
B-8---8---8---8-8-8-|
G-7---7---7---7-7-7-|
D-6---6---6---6-6-6-|
A-7-x-7-x-7-x-7-7-7-|
E-------------------| Rpt 23 X

E-------------------|
B-8------(8)--------|
G-7------(7)--------|
D-6------(6)--------|
A-7------(7)--------|
E-------------------|


  Guitar 1
E[---------------------------------------------------------------------|
B[---x--xxxxxxxxxx---x-xxxxxxxxxxx----xxxx----x-x-x-x-x--x--x--x--x-xx-|
G[---x--xxxxxxxxxx---x-xxxxxxxxxxx----xxxx----x-x-x-x-x--x--x--x--x-xx-|
D[---x--xxxxxxxxxx---x-xxxxxxxxxxx----xxxx----x-x-x-x-x--x--x--x--x-xx-|
A[---x--xxxxxxxxxx---x-xxxxxxxxxxx----xxxx----x-x-x-x-x--x--x--x--x-xx-|
E[-x---------------x---------------------------------------------------|
 [Guitar 2
E[-------------------------------------------------------0-3-----------|
B[--------------------------------------------3------------3-----------|
G[-------------------------xxxxxx-----xxxx----1-x-x-x-x--------x--x-xx-|
D[---------------------2222xxxxxx-----xxxx------x-x-x-x--------x--x-xx-|
A[-------------------x-------------------------------------------------|
E[-----------------x---------------------------------------------------|

E---------------------|
B-----------------12\-|
G-----x-x-x-x-x-x-12\-|
D-----x-x-x-x-x-x-12\-|
A-----x-x-x-x-x-x-----|
E-3-0-----------------| Rpt 2 x

E-----------------------|
B-----------------10/15-|
G-----x-x-x-x-x-x-------|
D-----x-x-x-x-x-x-------|
A-----x-x-x-x-x-x-------|
E-3-0-------------------|

E---------------------|
B-----------------12\-|
G-----x-x-x-x-x-x-12\-|
D-----x-x-x-x-x-x-12\-|
A---0-x-x-x-x-x-x-----|
E-3-------------------| 


E---------------------|
B-----------------12\-|
G-----x-x-x-x-x-x-12\-|
D-----x-x-x-x-x-x-12\-|
A-----x-x-x-x-x-x-----|
E-3-0-----------------| Rpt 5 x

E-------------------|
B-------------------|
G-----x-x-x-x-x-x---|
D-----x-x-x-x-x-x---|
A-----x-x-x-x-x-x---|
E-3-0---------------|

E---------------------|
B---------------------|
G-x-x-x-x-x-x-x-x-x-7-|
D-x-x-x-x-x-x-x-x-x-6-|
A-------------------7-|
E---------------------| Rpt 3 X

E-----------------------|
B-----------------------|
G-x-x-x-x-777-x-x-x-x-7-|
D-x-x-x-x-666-x-x-x-x-6-|
A---------------------7-|
E-----------------------|

E---------------------|
B---------------------|
G-x-x-x-x-x-x-x-x-x-7-|
D-x-x-x-x-x-x-x-x-x-6-|
A-------------------7-|
E---------------------| 

E---------------------|
B---------------------|
G-x-x-x-x-x-x-x-x-x-x-|
D-x-x-x-x-x-x-x-x-x-x-|
A-------------------x-|
E---------------------| 

 Drum fill



E--------------------------------|
B--------------------------------|
G-9-9-9-9-\------------9-9-9-9-\-|
D-9-9-9-9-\------------9-9-9-9-\-|
A-7-7-7-7-\------------7-7-7-7-\-|
E--------------------------------|

 Rpt Intro

 Outro solo
     h        ~~~~~~~~~~~~    ~~~~~~~~~~~~~~~~      h     h
E----------------------------15b15-15b15-15fb-x-----------------|
B-12-15p12----15b15b15fbrp12---------------------12-15p12-15p12-|
G----------14---------------------------------------------------|
D---------------------------------------------------------------|
A---------------------------------------------------------------|
E---------------------------------------------------------------|

  ~~~    ~~~~~~~~~~~~         h    h     h         h    ~~~~~
E-------------------------------------------------------------------|
B----12-------------------------------------------------------------|
G-14b---14b-14b-14b-14p12----------------------12-14p12-14b--14p12--|
D-------------------------12-14p12----12-14p12----------------------|
A----------------------------------14-------------------------------|
E-------------------------------------------------------------------|

      ~~~~~~~~~~  
E---------------|
B---------------|
G-12-14b--------|
D---------------|
A---------------|
E---------------|


  Guitar 1
E[-------------------------------------------------------------------|
B[-------------------------------------------------------------------|
G[-------------------------------------------------------------------|
D[-------------------------------------------------------------------|
A[-2-------------------------(2)-------------------------------------|
E[-0-------------------------(0)-------------------------------------|
 [Guitar 2
E[-------------------------------------------------------------------|
B[-8-------------------------(8)-------------------------------------|
G[-7-------------------------(7)-------------------------------------|
D[-6-------------------------(6)-------------------------------------|
A[-7-------------------------(7)-------------------------------------|
E[-------------------------------------------------------------------|



END

comments
We did not receive enough feedback on this tab! Please rate:
print report bad tab
1 2 3 4 5
1 comment total.
0 reply
Alter-Bridge wrote on January 17 2010, 04:40 am

Pretty good tab as far as I can tell.

I want to post or [tab]
guest
You may want to rate the tab now too:
select rating
Please do not post tabs as comments. Select "correction" instead!