Oops, an error
Loading. Please wait.

Lust Or Love Tab

3,095 views 12 this week
no commentswrite comment
1 2 3 4 5
excellent!
x 2
Autoscroll
+/-
esc
set tempo
stop
Contributor
WARNING: You are trying to view
                                    content from Ultimate-Guitar.com
                                    in an unauthorized application,
                                    which is prohibited.

                                    Please use an official Ultimate
                                    Guitar Tabs application for iPhone,
                                    iPad or Android to access legitimate
                                    chords, guitar, bass, and drum tabs
                                    from Ultimate-Guitar.com database.

                                    Type "ultimate guitar tabs" in Apple
                                    App Store's or Android Market's
                                    search to find the application.
LUST OR LOVE                              MEINE/RARREBELL/VALLANCE
CRAZY WORLD
SCORPIONS


ATENTION PLEASE : THIS SONG IS ONE OF THE FIRST SONG OF SCORPIONS THAT I
EVER HEARD
AND GOT EVERYTHING IN ONE VERY HEAVY METAL SONG, A COOL BEGINNING, A REALLY
KICK-ASS RHYTHM GUITAR, A MONSTEROUS DISTOR, A GIMME-CHANCE SOLO AND TALK
ABOUT
LUST WHAT ELSE CAN YOU ASK FOR?
THIS SONG IS THE REASON TO PLAY MY HEAVY METAL FAST AND LOUD JUST PUTTING
THE SETS
TO HIGH AND PLAY, ENJOY IT, THIS IS THE FIRST VERSION JUST PLAY IT IF YOU
ARE BORIED
AND YOU FEEL A GREAT ENERGY IN A FEW WEEKS THE BEST VERSION OF THIS TAB WILL
BE HERE
JUST MISSING SLIDES, PALM MUTE AND LITTLE FILLS JUST DETAILS

THANKS TO EVERY SCORPIONS FAN YOUR WORDS REALLY INSPIRE ME

tune down half step
intro
---------------------------------------------------------------------|
-7-------------------------------------------------------------------|
-7-------------------------------------------------------------------|
-7-----99999999--7---99999999--7---5-7-99999999--7---99999999---7--5-|
-5-----99999999--7---99999999--7---5-7-99999999--7---99999999---7--5-|LET IT
SOUND
-------77777777--5---77777777--5---3-5-77777777--5---77777777---5--3-


fig1 verse
-----------------------------------------------------|
-----------------------------------------------------|
-------------7----9----------------------------------|
----9---7----7----9----9/7-5-------7---9---7---5--7--|
----9---7----5----7----9/7-5-------7---9---7---5--7--|
----7---5--------------7/5-3-------5---7---5---3--5--|
p.m.                   ...
-----------------------------------------------------|
-----------------------------------------------------|
-------------7----9----------------------------------|
----9---7----7----9----9/7-5-------7---9-------------|
----9---7----5----7----9/7-5-------7---9-------------|
----7---5--------------7/5-3-------5---7-------------|
p.m.                   ...

bridge
------------------------------------------------------------------|
------------------------------------------------------------------|
------------------------------------------------------------------|
------5---7---7-7-7--7---7-7-7-7---5---7---7-7-7-----4-4-4-4------|
------5---7---7-7-7--7---7-7-7-7---5---7---7-7-7-----4-4-4-4------|
------3---5-0-5-5-5--5-0-5-5-5-5---3---5-0-5-5-5-----2-2-2-2------|
p.m.        ...       ...


chorus
---------------------------------------------------|
---------------------------------------------------|
---------------------------------------------------|
--9/7/9----7----2---5-4---7-----9/7/9----7---2---5-|
--9/7/9----7----2---5-4---7-----9/7/9----7---2---5-|
--7/5/7----5----0---3-2---5-----7/5/7----5---0---3-|


fill1
-----------------------------------------------|
-----------------------------------------------|
-----------------------------------------------|
------9----7---9----7---5-7--------------------|
------9----7---9----7---5-7--------------------|
------7----5---7----5---3-5--------------------|

The innocence is gone
But still I'm holding on
Searchin' for love that lasts forever                  VERSE
Lookin' for a place
Where love can hide away
Takin' a chance it's now or never

Maybe it's time to draw the line
There's just one thing that's on my mind                BRIDGE

Is it lust, is it love
Whatever it is I can't get enough
Is it lust, is it love                                  CHORUS
When I look around tell me who can I trust
Is it love

fill1

Lovers come and go
Sometimes it's hard to know
If this will be a night to treasure
When the damage has been done                           VERSE
And the hurting has begun
You'll justify a moment's pleasure

BRIDGE

Is it lust, is it love
Whatever it is I can't get enough
Is it lust, is it love
It ain't nothin' that I can't rise above                 CHORUS
Is it lust, is it love
When I look around tell me who can I trust
Is it love
Lust or love

SOLO w/intro 2 times

Maybe it's time to draw the line                          BRIDGE
There's just one thing that's on my mind

Is it lust, is it love
Whatever it is I can't get enough
Is it lust, is it love                                    CHORUS
It ain't nothin' that I can't rise above
Is it lust, is it love
Still lookin' for more, it's never enough
Is it lust, is it love
When I look around tell me who can I trust
Is it love, is it love, is it love
Is it love, is it love


mirsha_joker@hotmail.com
comments
We did not receive enough feedback on this tab! Please rate:
1 2 3 4 5
I want to post or [tab]
guest
You may want to rate the tab now too:
select rating
Please do not post tabs as comments. Select "correction" instead!