Oops, an error
Loading. Please wait.

When You Came Into My Life Tab

ver1
ver1

Whole song

Interactive

More versions @911Tabs.com
8,263 views 30 this week
no commentswrite comment
1 2 3 4 5
excellent!
x 4
Autoscroll
+/-
esc
set tempo
stop
Contributor
Hey! There's an official Ultimate Guitar app which is ideal
for learning songs when you're away from computer. Get the app
WARNING: You are trying to view
                                    content from Ultimate-Guitar.com
                                    in an unauthorized application,
                                    which is prohibited.

                                    Please use an official Ultimate
                                    Guitar Tabs application for iPhone,
                                    iPad or Android to access legitimate
                                    chords, guitar, bass, and drum tabs
                                    from Ultimate-Guitar.com database.

                                    Type "ultimate guitar tabs" in Apple
                                    App Store's or Android Market's
                                    search to find the application.
Song: When You Came Into My Life
Artist: Scorpions

Transposed By Colton Wood

Email: C0LT0NW00D@AOL.COM

This is a beautiful song by the Scorpions, please enjoy the tab. This song 
isn't that hard so don't give up if it looks complicated. It's actually 
pretty dang

*I left out tiny riffs in Outro because if I included them it would have 
been extremely confusing and the Outro would have took up about 5 pages in 
a word document.*

Legend:
b | Bend to
r | Release bend
/ | Slide up to
\ | Slide down to
h | Hammer on to
p | Pull off to
~ | Hold note
^ | Upstroke
()| Ghost Note
. | Palm Muted
v | Vibrato

Guitar 1: Acoustic, Standard Tuning
Guitar 2: Distorted Electric, Standard Tuning
Guitar 3: Acoustic, Standard Tuning
****************************************************************************

Intro: Guitar 1 Only

e|----------------------------|
B|----------------------------|
G|-------4------5------4------|
D|-----7----7------7--------7-|
A|---7--------7------7----7---|
E|-5--------------------------|

e|--------------3-------------|
B|-------3-------------3------|
G|-----5----5------5--------5-|
D|---5--------5------5----5---|
A|-3--------------------------|
E|----------------------------|

E|----------------------------|
B|------------------------1~--|
G|-------2--4--5--4--2----0~--|
D|-----5---------------5--0~--|
A|---5--------------------3~--|
E|-3----------------------1~--|
                          ^
Verse 1: Guitar 1 Only

e|----------------------------|
B|--------------5-------------|
G|-------4-------------4------|
D|-----7----7------7--------7-|
A|---7--------7------7----7---|
E|-5--------------------------|

e|--------------3-------------|
B|-------3-------------3------|
G|-----5----5------5--------5-|
D|---5--------5------5----5---|
A|-3--------------------------|
E|----------------------------|

e|----------------------------|
B|----------------------------|
G|-------2--4--5--4--2--------|
D|-----5----------------5-----|
A|---5--------------------5---|
E|-3--------------------------|

e|----------------------------|
B|--------------1-------------|
G|-------2-------------2------|
D|-----3----3------3--------3-|
A|---3--------3------3----3---|
E|-1--------------------------|

e|----------------------------|
B|--------------5-------------|
G|-------4-------------4------|
D|-----7----7------7--------7-|
A|---7--------7------7----7---|
E|-5--------------------------|

e|--------------3-------------|
B|-------3-------------3------|
G|-----5----5------5--------5-|
D|---5--------5------5----5---|
A|-3--------------------------|
E|----------------------------|

e|----------------------------|
B|----------------------------|
G|-------2--4--5--4----2------|
D|-----5------------------5---|
A|---5------------------------|
E|-3-----------------3--------|

e|----------------------------|
B|----------1-----------------|
G|-------2-----2-------2------|
D|-----3-------------3----3---|
A|---3-------------3----------|
E|-1-------------1------------|

e|----------------------------|
B|-------3------3-----3-------|
G|-----5------5-----5---5-----|
D|---5------5-----5-------5---|
A|-3--------------------------|
E|----------------------------|
                              
e|-0~-------------------------|
B|-0~-------------------------|
G|-1~-------------------------|
D|-2~-------------------------|
A|-2~-------------------------|
E|-0~-------------------------|
   ^
Verse 2: Guitar 1 Only, Drums enter

e|----------------------------|
B|--------------5-------------|
G|-------4-------------4------|
D|-----7----7------7--------7-|
A|---7--------7------7----7---|
E|-5--------------------------|

e|--------------3-------------|
B|-------3-------------3------|
G|-----5----5------5--------5-|
D|---5--------5------5----5---|
A|-3--------------------------|
E|----------------------------|

e|----------------------------|
B|-------------3--------------|
G|-------2--4-----2--2-4------|
D|-----5----------------------|
A|---5------------------------|
E|-3--------------------------|

e|----------------------------|
B|----------1-----------------|
G|-------2-----2-------2------|
D|-----3-------------3----3---|
A|---3-------------3----------|
E|-1-------------1------------|

e|----------------------------|
B|-------3------3-----3-------|
G|-----5------5-----5---5-----|
D|---5------5-----5-------5---|
A|-3--------------------------|
E|----------------------------|
                                   
e|-0~-------------------------|
B|-0~-------------------------|
G|-1~-------------------------|
D|-2~-------------------------|
A|-2~-------------------------|
E|-0~-------------------------|
   ^

Chorus: Guitar 1 and 2
Guitar 1 plays softly

e|----------------------------|
B|-----1------1------1------1-|
G|---2------2------2------2---|
D|-3------3------3------3-----|
A|----------------------------|
E|----------------------------|
1:
2:
e|----------------------------|
B|----------------------------|
G|----------------------------|
D|-3~-------------------------|
A|-3~-------------------------|
E|-1~-------------------------|

e|----------------------------|
B|-----3------3------3------3-|
G|---2------2------2------2---|
D|-0------0------0------0-----|
A|----------------------------|
E|----------------------------|
1:
2:
e|----------------------------|
B|----------------------------|
G|-7~-------------------------|
D|-7~-------------------------|
A|-5~-------------------------|
E|----------------------------|

e|----------------------------|
B|-----1------1------1------1-|
G|---2------2------2------2---|
D|-3------3------3------3-----|
A|----------------------------|
E|----------------------------|
1:
2:
e|----------------------------|
B|----------------------------|
G|----------------------------|
D|-3~-------------------------|
A|-3~-------------------------|
E|-1~-------------------------|

e|----------------------------|
B|-------0-----0-----0~-------|
G|-----1-----1-----1----------|
D|---2-----2-----2------------| 
A|-2--------------------------|
E|----------------------------|
1:
2:
e|----------------------------|
B|----------------------------|
G|----------------------------|
D|-2~-------------------------|
A|-2~-------------------------|
E|-0~-------------------------|

Pre-Verse: Guitar 1 Only

e|----------------------------|
B|----------------------------|
G|-------4------4------4------|
D|-----7----7------7-----7----|
A|---7--------7------7-----7--|
E|-5--------------------------|

e|----------------------------|
B|----------------------------|
G|-------4------5~------------|
D|-----7----7-----------------|
A|---7--------7---------------|
E|-5--------------------------|

e|----------------------------|
B|----------------------------|
G|-------4------4------4------|
D|-----7----7------7-----7----|
A|---7--------7------7-----7--|
E|-5--------------------------|

e|----------------------------|
B|----------------------------|
G|-------4------5~------------|
D|-----7----7-----------------|
A|---7--------7---------------|
E|-5--------------------------|

Verse 3: Guitar 1 Only

e|----------------------------|
B|--------------5-------------|
G|-------4-------------4------|
D|-----7----7------7--------7-|
A|---7--------7------7----7---|
E|-5--------------------------|

e|--------------3-------------|
B|-------3-------------3------|
G|-----5----5------5--------5-|
D|---5--------5------5----5---|
A|-3--------------------------|
E|----------------------------|

e|----------------------------|
B|----------------------------|
G|-------2--4--5--4--2--------|
D|-----5----------------5-----|
A|---5--------------------5---|
E|-3--------------------------|

e|----------------------------|
B|---------------1---1--------|
G|-------2--------------------|
D|-----3----3------3---3------|
A|---3--------3----------3----|
E|-1--------------------------|

e|----------------------------|
B|--------------5-------------|
G|-------4-------------4------|
D|-----7----7------7--------7-|
A|---7--------7------7----7---|
E|-5--------------------------|

e|--------------3-------------|
B|-------3-------------3------|
G|-----5----5------5--------5-|
D|---5--------5------5----5---|
A|-3--------------------------|
E|----------------------------|

e|----------------------------|
B|----------------------------|
G|-------2--4--5--4--2--------|
D|-----5----------------5-----|
A|---5--------------------5---|
E|-3--------------------------|

e|----------------------------|
B|--------------1-------------|
G|-------2-------------2------|
D|-----3----3------3--------3-|
A|---3--------3------3----3---|
E|-1--------------------------|

e|----------------------------|
B|-------3------3-----3-------|
G|-----5------5-----5---5-----|
D|---5------5-----5-------5---|
A|-3--------------------------|
E|----------------------------|
                        
e|-0~-------------------------|
B|-0~-------------------------|
G|-1~-------------------------|
D|-2~-------------------------|
A|-2~-------------------------|
E|-0~-------------------------|

Chorus 2: Change it up a bit from the first

e|----------------------------|
B|-----1------1------1------1-|
G|---2------2------2------2---|
D|-3------3------3------3-----|
A|----------------------------|
E|----------------------------|
1:
2:
e|----------------------------|
B|----------------------------|
G|----------------------------|
D|-3~-------------------------|
A|-3~-------------------------|
E|-1~-------------------------|

e|----------------------------|
B|-----3------3------3------3-|
G|---2------2------2------2---|
D|-0------0------0------0-----|
A|----------------------------|
E|----------------------------|
1:
2:
e|----------------------------|
B|----------------------------|
G|-7~-------------------------|
D|-7~-------------------------|
A|-5~-------------------------|
E|----------------------------|

e|----------------------------|
B|-----1------1------1------1-|
G|---2------2------2------2---|
D|-3------3------3------3-----|
A|----------------------------|
E|----------------------------|
1:
2:
e|----------------------------|
B|----------------------------|
G|----------------------------|
D|-3~-------------------------|
A|-3~-------------------------|
E|-1~-------------------------|

e|----------------------------|
B|-------0-----0-----0~-------|
G|-----1-----1-----1----------|
D|---2-----2-----2------------| 
A|-2--------------------------|
E|----------------------------|
1:
2:
e|----------------------------|
B|----------------------------|
G|----------------------------|
D|-2~-------------------------|
A|-2~-------------------------|
E|-0~-------------------------|

e|----------------------------|
B|-----1------1------1------1-|
G|---2------2------2------2---|
D|-3------3------3------3-----|
A|----------------------------|
E|----------------------------|
1:
2:
e|----------------------------|
B|----------------------------|
G|----------------------------|
D|-3~-------------------------|
A|-3~-------------------------|
E|-1~-------------------------|

e|----------------------------|
B|-----3------3------3------3-|
G|---2------2------2------2---|
D|-0------0------0------0-----|
A|----------------------------|
E|----------------------------|
1:
2:
e|----------------------------|
B|----------------------------|
G|-7~-------------------------|
D|-7~-------------------------|
A|-5~-------------------------|
E|----------------------------|

e|----------------------------|
B|-----1------1------1------1-|
G|---2------2------2------2---|
D|-3------3------3------3-----|
A|----------------------------|
E|----------------------------|
1:
2:
e|----------------------------|
B|----------------------------|
G|----------------------------|
D|-3~-------------------------|
A|-3~-------------------------|
E|-1~-------------------------|

e|----------------------------|
B|-------0-----0-----0~-------|
G|-----1-----1-----1----------|
D|---2-----2-----2------------| 
A|-2--------------------------|
E|----------------------------|
1:
2:
e|------------------/12-------|
B|----------------------------|
G|----------------------------|
D|-2~-------------------------|
A|-2~-------------------------|
E|-0~-------------------------|

Interlude: Guitar 1, 2, and 3

e|----------------------------|
B|--------------5-------------|
G|-------4-------------4------|
D|-----7----7------7--------7-|
A|---7--------7------7----7---|
E|-5--------------------------|
1:
2:
e|----------------------------|
B|----------------------------|
G|----------------------------|
D|----------------------------|
A|----------------------------|
E|----------------------------|
2:
3:
e|----------------------------|
B|----------------------------|
G|----------------------------|
D|----------------------------|
A|----------------------------|
E|----------------------------|

e|--------------3-------------|
B|-------3-------------3------|
G|-----5----5------5--------5-|
D|---5--------5------5----5---|
A|-3--------------------------|
E|----------------------------|
1:
2:
e|----------------------------|
B|----------------------------|
G|----9-\7-\5-----------------|
D|----------------------------|
A|----------------------------|
E|----------------------------|
2:
3:
e|----------------------------|
B|----------------------------|
G|--------------------------5-|
D|------------------------7---|
A|----------------------------|
E|----------------------------|

e|----------------------------|
B|----------------------------|
G|-------2--4--5--4--2--------|
D|-----5----------------5-----|
A|---5--------------------5---|
E|-3--------------------------|
1:
2:
e|----------------------------|
B|----------------------------|
G|----------------------------|
D|----------------------------|
A|----------------------------|
E|----------------------------|
2:
3:
e|----------------------------|
B|-----------------------8~---|
G|-7-7b8r7--------------------|
D|----------------------------|
A|----------------------------|
E|----------------------------|

e|----------------------------|
B|----------1-----------------|
G|-------2-----2--------2-----|
D|-----3----------3---3-----3-|
A|---3--------------3-----3---|
E|-1--------------------------|
1:
2:
e|----------------------------|
B|----------------------------|
G|----------------------------|
D|----------------------------|
A|----------------7-7-7-7-7-7-|
E|----------------5-5-5-5-5-5-|
2:                . . . . . .
3:
e|----------------------------|
B|----------------------------|
G|-5~-------------------------|
D|----------------------------|
A|----------------------------|
E|----------------------------|

Remove Guitar 1 for now

e|----------------------------|
B|----------------------------|
G|-5--------------------------|
D|---7-7~---------------------|
A|----------------------------|
E|----------------------------|
2:
3:
e|----------------------------|
B|----------------------------|
G|-----0-2-4--5--4------------|
D|-----------------2----------|
A|----------------------------|
E|----------------------------|

e|----------------------------|
B|----------------------------|
G|----------------------------|
D|----------------------------|
A|----------------------------|
E|----------------------------|
2:
3:
e|-------------3--------------|
B|----------------------------|
G|-5/7--5--4-5----------------|
D|----------------5-----------|
A|----------------------------|
E|----------------------------|

e|----------------------------|------|
B|----------------------------|------|
G|----------------------------|-7v---|
D|----------------------------|----7-|
A|----------------------------|------|
E|----------------------------|------|
2:
3:
e|----------------------------|
B|-5/8-6-5-6-5-3-5-3-1-3-1-0--|
G|---------------------------2|
D|----------------------------|
A|----------------------------|
E|----------------------------|

Pre Chorus: Guitars 2 and 3

e|----------------------------|
B|----------------------------|
G|-7~---------------9~--------|
D|-7~---------------9~--------|
A|-5~---------------7~--------|
E|----------------------------|
2:
3:
e|----------------------------|
B|----888-6-5-6-5-3-5---5h6p5-|
G|----------------------------|
D|----------------------------|
A|----------------------------|
E|----------------------------|

Chorus: Guitar 1 and 2


e|----------------------------|
B|-----1------1------1------1-|
G|---2------2------2------2---|
D|-3------3------3------3-----|
A|----------------------------|
E|----------------------------|
1:
2:
e|----------------------------|
B|----------------------------|
G|----------------------------|
D|-3~-------------------------|
A|-3~-------------------------|
E|-1~-------------------------|

e|----------------------------|
B|-----3------3------3------3-|
G|---2------2------2------2---|
D|-0------0------0------0-----|
A|----------------------------|
E|----------------------------|
1:
2:
e|----------------------------|
B|----------------------------|
G|-7~-------------------------|
D|-7~-------------------------|
A|-5~-------------------------|
E|----------------------------|

e|----------------------------|
B|-----1------1------1------1-|
G|---2------2------2------2---|
D|-3------3------3------3-----|
A|----------------------------|
E|----------------------------|
1:
2:
e|----------------------------|
B|----------------------------|
G|----------------------------|
D|-3~-------------------------|
A|-3~-------------------------|
E|-1~-------------------------|

e|----------------------------|
B|-------0-----0-----0~-------|
G|-----1-----1-----1----------|
D|---2-----2-----2------------| 
A|-2--------------------------|
E|----------------------------|
1:
2:
e|----------------------------|
B|----------------------------|
G|----------------------------|
D|-2~-------------------------|
A|-2~-------------------------|
E|-0~-------------------------|

Outro: Play the following just over 4 times times 

e|----------------------------|
B|-----1------1------1------1-|
G|---2------2------2------2---|
D|-3------3------3------3-----|
A|----------------------------|
E|----------------------------|
1:
2:
e|----------------------------|
B|----------------------------|
G|----------------------------|
D|-3~-------------------------|
A|-3~-------------------------|
E|-1~-------------------------|

e|----------------------------|
B|-----3------3------3------3-|
G|---2------2------2------2---|
D|-0------0------0------0-----|
A|----------------------------|
E|----------------------------|
1:
2:
e|----------------------------|
B|----------------------------|
G|-7~-------------------------|
D|-7~-------------------------|
A|-5~-------------------------|
E|----------------------------|

e|----------------------------|
B|-----1------1------1------1-|
G|---2------2------2------2---|
D|-3------3------3------3-----|
A|----------------------------|
E|----------------------------|
1:
2:
e|----------------------------|
B|----------------------------|
G|----------------------------|
D|-3~-------------------------|
A|-3~-------------------------|
E|-1~-------------------------|
On the fourth time, start fade right... 
e|----------------------------|
B|-------0-----0-----0~-------|
G|-----1-----1-----1----------|
D|---2-----2-----2------------| 
A|-2--------------------------|
E|----------------------------|
1: ...here ^
2:
e|----------------------------|
B|----------------------------|
G|----------------------------|
D|-2~-------------------------|
A|-2~-------------------------|
E|-0~-------------------------|

Fin

There you have it, When you Came into My Life: the whole song.

Please leave me a comment and a rating, that would be nice.
comments
print report bad tab
I want to post or [tab]
guest
You may want to rate the tab now too:
select rating
Please do not post tabs as comments. Select "correction" instead!