Oops, an error
Loading. Please wait.

Heartbeat Tab

ver3
ver3

Whole song

Interactive

More versions @911Tabs.com
956 views 6 this week
no commentswrite comment
1 2 3 4 5
excellent!
x 1
Autoscroll
+/-
esc
set tempo
stop
Difficulty
novice
Hey! There's an official Ultimate Guitar app which is ideal
for learning songs when you're away from computer. Get the app
WARNING: You are trying to view
                                    content from Ultimate-Guitar.com
                                    in an unauthorized application,
                                    which is prohibited.

                                    Please use an official Ultimate
                                    Guitar Tabs application for iPhone,
                                    iPad or Android to access legitimate
                                    chords, guitar, bass, and drum tabs
                                    from Ultimate-Guitar.com database.

                                    Type "ultimate guitar tabs" in Apple
                                    App Store's or Android Market's
                                    search to find the application.
HEARTBEAT - SCOUTING FOR GIRLS TAB

The first part of the song with only the piano, accompanied with the drums

VERSE 1 (Without guitar)

Am I alone, in your heart
Have I hope....with your heart?
She's such a teaser, she's such a star
Give me a reason, or give me a chance!

PRE-CHORUS 1 (Partly without guitar)

Am I alone, in your heart
Am I alone?
It tears me apaaaaaaaaaaaaaaaaart...

When the singer sings "Apaaaaaaaaaaaaaaaaart", 4 seconds before
the opening chorus, you must play this subtle riff

E |------------------------|
B |---------7--7-----------|
G |7--6--7--------7--6--7--|
D |------------------------|
A |------------------------|
E |------------------------|
   
   CHORUS

  This is the riff for the chorus. You must play it twice.

  "Doin-all-I-can-do,just-to-be-next-to-you, everytime we meet,
  I skip a heart-beat" 
  "Always-up-for-a-laugh,she's-a-pain-in-the-arse,
  everytime we-meet-I-skip-a-heart-beat"
E :----------------------------5------------------------:
B :7--7--7-8-7--7----7--7-8-7-----7--7-8-7--7-----------:
G :--------------------------------------------7--6--7--:
D :-----------------------------------------------------:  X2
A :-----------------------------------------------------:
E :-----------------------------------------------------:
  
  After the end of the chorus, you play this very simple lick here.
  If you cannot play it, you must have problems!

E |------------------------|
B |------------------------|
G |7--9--9--7--7--9--9--7--|
D |------------------------|               
A |------------------------|                                          
E |------------------------|

  VERSE 3 (Mostly without guitar)
  
 Give me an evening, or give me a night
 I'll show you the time....of your life.
 
(The next line co-incides with this part here)

  "I'll walk-you-home safe...from the dark"
E |-----------------------------------------|
B |-----------------------------------------|
G |6(V)--------7(V)----7--9(SLIDE)2(V)------|
D |-----------------------------------------|
A |-----------------------------------------|
E |-----------------------------------------|

  I'll give you my jacket, I'll give you my heart!

   PRE-CHORUS 2 (Mostly without guitar)
  
  But she won't come dancing...tonight,
  She's having the time....of her liiiiiife

  When the singer sings "Liiiiiiife", you play this riff,
  which is only slightly different to the last pre-chorus riff
  you played, four seconds before the CHORUS.   

E |-------------------------|
B |------7-----7--8--10--8--|
G |6--7-----6---------------|
D |-------------------------|
A |-------------------------|
E |-------------------------|

  CHORUS
   
 "Doin-all-I-can-do just-to-be next-to-you,everytime-that-we
  meet I-skip-a-heart-beeat"
 "Always-up-on-a-laugh,she's-a-pain-in-the-arse,everytime-we-meet
  I-skip-a-heart-beat"
E :----------------------------5------------------------:
B :7--7--7-8-7--7----7--7-8-7-----7--7-8-7--7-----------:
G :--------------------------------------------7--6--7--:
D :-----------------------------------------------------:  X2
A :-----------------------------------------------------:
E :-----------------------------------------------------:

  BRIDGE 

  I do love
  She does heart-break

  I did love, till she broke my heart

  (The second time the singer sings this, you play this riff below)
  "I-do-love, she-does-heart-break, I-did-love-till-she-broke
   my-heart"
E |------------------------------------------------------|
B |------------------------------------------------------|
G |7--------7----7(SLIDE)2-------2(SLIDE)7----7----------|
D |------------------------------------------------------|
A |------------------------------------------------------|
E |------------------------------------------------------|
  
  Then the singer repeats the bridge two more times, no guitar is
  played.
  
  I do love (I do love)
  She does heart-break (I do love)
  I did love till she broke my heart (I do love, I do love, I do love)

  I do love (I do love)
  She does heart-break (I do love)
  I did love till she broke my heeeaaaaart (I do love, I do love,
  I do love)

  CHORUS (First half is only piano + vocals)
  
  Doing all I can do, just to be next to you,
  everytime we meet, I skip a heart BEAT
   
  NOTE: You must play the chorus once, for the second part only,
  until the chorus is repeated once more
  
  "Always up on a laugh, she's a pain in the arse
   Everytime we meet, I skip a heart beat" 
E |----------------------------5------------------------|
B |7--7--7-8-7--7----7--7-8-7-----7--7-8-7--7-----------|
G |--------------------------------------------7--6--7--|
D |-----------------------------------------------------|
A |-----------------------------------------------------|
E |-----------------------------------------------------|

  INTERLUDE
  
  I skip..a heart..BEAT for...
  YOUUUUUUUUUUU 
("Doing all I can do, just to be next to you,
  everytime we meet, I skip a heart-BEAT")
  "Always up for a laugh, she's a pain in the arse
  everytime we meet, I skip a heart-beat"
E :----------------------------5------------------------:
B :7--7--7-8-7--7----7--7-8-7-----7--7-8-7--7-----------:
G :--------------------------------------------7--6--7--:
D :-----------------------------------------------------:  X2
A :-----------------------------------------------------:
E :-----------------------------------------------------:

  FINAL RIFF


                           "I skip-a-heartbeat for YOUUUUUU"
E |-------------------------------------------------------|
B |---------------------------7--8--10--10--8--7(LET RING)|
G |7--9--9--7--7--9--9--7--9------------------------------|
D |-------------------------------------------------------|
A |-------------------------------------------------------|
E |-------------------------------------------------------|

   THANKS FOR PLAYING. THIS SONG IS SOO EASY, YOU SHOULD HAVE
   ABSOLUTELY NO PROBLEMS WITH IT!
comments
We did not receive enough feedback on this tab! Please rate:
print report bad tab
1 2 3 4 5
I want to post or [tab]
guest
You may want to rate the tab now too:
select rating
Please do not post tabs as comments. Select "correction" instead!