Oops, an error
Loading. Please wait.

Shes So Lovely Bass Tab

ver2
ver2

Whole song

More versions @911Tabs.com
4,564 views 6 this week
no commentswrite comment
1 2 3 4 5
excellent!
x 3
Autoscroll
+/-
esc
set tempo
stop
Difficulty
intermediate
Hey! There's an official Ultimate Guitar app which is ideal
for learning songs when you're away from computer. Get the app
WARNING: You are trying to view
                                    content from Ultimate-Guitar.com
                                    in an unauthorized application,
                                    which is prohibited.

                                    Please use an official Ultimate
                                    Guitar Tabs application for iPhone,
                                    iPad or Android to access legitimate
                                    chords, guitar, bass, and drum tabs
                                    from Ultimate-Guitar.com database.

                                    Type "ultimate guitar tabs" in Apple
                                    App Store's or Android Market's
                                    search to find the application.
Intro
|-----------------|-----------------|-----------------|-----------------|
|---------3-3-----|---------5-5-2-0-|---------3-3-----|---------5-5-2-0-|
|-3-3-------------|-5-5-------------|-3-3-------------|-5-5-------------|
|-----------------|-----------------|-----------------|-----------------|

|-----------------|-----------------|-----------------|-----------------|
|---------3-3-3-3-|---------5-5-2-0-|---------3-3-3-3-|---------5-5-2-0-|
|-3-3-3-3---------|-5-5-5-5---------|-3-3-3-3---------|-5-5-5-5---------|
|-----------------|-----------------|-----------------|-----------------|

Verse

|-----------------|-----------------|-----------------|-----------------|
|---------3-3-----|---------5-5-----|---------3-3-----|---------5-5-----|
|-3-3-------------|-5-5-------------|-3-3-------------|-5-5-------------|
|-----------------|-----------------|-----------------|-----------------|

|-----------------|-----------------|-----------------|-----------------|
|---------3-3-----|---------5-5-----|---------3-3-----|---------5-5-----|
|-3-3-------------|-5-5-------------|-3-3-------------|-5-5-------------|
|-----------------|-----------------|-----------------|-----------------|

|-----------------|
|-----------------|
|-3~--------------|
|-----------------|

Chorus

|-----------------|-----------------|-----------------|-----------------|
|-----------------|-3-3-3-3-3-3-3-3-|-----------------|-5---------------|
|-3-3-3-3-3-3-3-3-|-----------------|-5-5-5-5-5-5-5-5-|-----------------|
|-----------------|-----------------|-----------------|-----------------|

|-----------------|-----------------|-----------------|-----------------|
|-----------------|-3-3-3-3-3-3-3-3-|-----------------|-5---------------|
|-3-3-3-3-3-3-3-3-|-----------------|-5-5-5-5-5-5-5-5-|-----------------|
|-----------------|-----------------|-----------------|-----------------|

Verse

|-----------------|-----------------|-----------------|-----------------|
|-----------------|-3-3-------------|-----------------|-5-5-------------|
|-3-3-------------|-----------------|-5-5-5-5-5-5-5-5-|-----------------|
|-----------------|-----------------|-----------------|-----------------|

|-----------------|-----------------|-----------------|-----------------|
|-----------------|-3-3-3-3-3-3-3-3-|-----------------|-5-5-5-5-5-5-5-5-|
|-3-3-3-3-3-3-3-3-|-----------------|-5-5-5-5-5-5-5-5-|-----------------|
|-----------------|-----------------|-----------------|-----------------|

Bridge

|-----------------|-----------------|-----------------|-----------------|
|-3~--------------|-2~--------------|-0~--------------|-----------------|
|-----------------|-----------------|-----------------|-3~--------------|
|-----------------|-----------------|-----------------|-----------------|

|-----------------|-----------------|-----------------|-----------------|
|-3~--------------|-2~--------------|-0~--------------|-----------------|
|-----------------|-----------------|-----------------|-3~--------------|
|-----------------|-----------------|-----------------|-----------------|

Verse

|-----------------|-----------------|-----------------|-----------------|
|---------3-3-----|---------5-5-----|---------3-3-----|---------5-5-----|
|-3-3-------------|-5-5-------------|-3-3-------------|-5-5-------------|
|-----------------|-----------------|-----------------|-----------------|

|-----------------|-----------------|-----------------|-----------------|
|---------3-3-----|---------5-5-----|---------3-3-----|---------5-5-----|
|-3-3-------------|-5-5-------------|-3-3-------------|-5-5-------------|
|-----------------|-----------------|-----------------|-----------------|


|-----------------|
|-----------------|
|-3~--------------|
|-----------------|

Chorus

|-----------------|-----------------|-----------------|-----------------|
|-----------------|-3-3-3-3-3-3-3-3-|-----------------|-5---------------|
|-3-3-3-3-3-3-3-3-|-----------------|-5-5-5-5-5-5-5-5-|-----------------|
|-----------------|-----------------|-----------------|-----------------|

|-----------------|-----------------|-----------------|-----------------|
|-----------------|-3-3-3-3-3-3-3-3-|-----------------|-5---------------|
|-3-3-3-3-3-3-3-3-|-----------------|-5-5-5-5-5-5-5-5-|-----------------|
|-----------------|-----------------|-----------------|-----------------|

Verse

|-----------------|-----------------|-----------------|-----------------|
|-----------------|-3-3-------------|-----------------|-5-5-------------|
|-3-3-------------|-----------------|-5-5-5-5-5-5-5-5-|-----------------|
|-----------------|-----------------|-----------------|-----------------|

|-----------------|-----------------|-----------------|-----------------|
|-----------------|-3-3-3-3-3-3-3-3-|-----------------|-5-5-5-5-5-5-5-5-|
|-3-3-3-3-3-3-3-3-|-----------------|-5-5-5-5-5-5-5-5-|-----------------|
|-----------------|-----------------|-----------------|-----------------|

Bridge

|-----------------|-----------------|-----------------|-----------------|
|-3~--------------|-2~--------------|-0~--------------|-----------------|
|-----------------|-----------------|-----------------|-3~--------------|
|-----------------|-----------------|-----------------|-----------------|

|-----------------|-----------------|-----------------|-----------------|
|-3~--------------|-2~--------------|-0~--------------|-----------------|
|-----------------|-----------------|-----------------|-3~--------------|
|-----------------|-----------------|-----------------|-----------------|

|-----------------|-----------------|-----------------|-----------------|
|-3-3-3-3-3-3-3-3-|-2-2-2-2-2-2-2-2-|-0-0-0-0-0-0-0-0-|-----------------|
|-----------------|-----------------|-----------------|-3-3-3-3-3-3-3-3-|
|-----------------|-----------------|-----------------|-----------------|

|-----------------|-----------------|-----------------|-----------------|
|-3-3-3-3-3-3-3-3-|-2-2-2-2-2-2-2-2-|-0-0-0-0-0-0-0-0-|-----------------|
|-----------------|-----------------|-----------------|-3-3-3-3-3-3-3-3-|
|-----------------|-----------------|-----------------|-----------------|

Verse

|-----------------|-----------------|-----------------|-----------------|
|---------3-3-----|---------5-5-----|---------3-3-----|---------5-5-----|
|-3-3-------------|-5-5-------------|-3-3-------------|-5-5-------------|
|-----------------|-----------------|-----------------|-----------------|

|-----------------|-----------------|-----------------|-----------------|
|---------3-3-----|---------5-5-----|---------3-3-----|---------5-5-----|
|-3-3-------------|-5-5-------------|-3-3-------------|-5-5-------------|
|-----------------|-----------------|-----------------|-----------------|

|-----------------|-----------------|-----------------|-----------------|
|---------3-3-3-3-|---------5-5-5-5-|---------3-3-3-3-|---------5-5-5-5-|
|-3-3-3-3---------|-5-5-5-5---------|-3-3-3-3---------|-5-5-5-5---------|
|-----------------|-----------------|-----------------|-----------------|

|-----------------|-----------------|-----------------|-----------------|
|---------3-3-3-3-|---------5-5-5-5-|---------3-3-3-3-|---------5-5-5-5-|
|-3-3-3-3---------|-5-5-5-5---------|-3-3-3-3---------|-5-5-5-5---------|
|-----------------|-----------------|-----------------|-----------------|

|-----------------|
|-----------------|
|-3~--------------|
|-----------------|

Chorus

|-----------------|-----------------|-----------------|-----------------|
|-----------------|-3-3-3-3-3-3-3-3-|-----------------|-5---------------|
|-3-3-3-3-3-3-3-3-|-----------------|-5-5-5-5-5-5-5-5-|-----------------|
|-----------------|-----------------|-----------------|-----------------|

|-----------------|-----------------|-----------------|-----------------|
|-----------------|-3-3-3-3-3-3-3-3-|-----------------|-5---------------|
|-3-3-3-3-3-3-3-3-|-----------------|-5-5-5-5-5-5-5-5-|-----------------|
|-----------------|-----------------|-----------------|-----------------|

Bridge

[piano first for 8 bars]

|-----------------|-----------------|-----------------|-----------------|
|-3~--------------|-2~--------------|-0~--------------|-----------------|
|-----------------|-----------------|-----------------|-3~--------------|
|-----------------|-----------------|-----------------|-----------------|

|-----------------|-----------------|-----------------|-----------------|
|-3~--------------|-2~--------------|-0~--------------|-----------------|
|-----------------|-----------------|-----------------|-3~--------------|
|-----------------|-----------------|-----------------|-----------------|

|-----------------|-----------------|-----------------|-----------------|
|-3-3-3-3-3-3-3-3-|-2-2-2-2-2-2-2-2-|-0-0-0-0-0-0-0-0-|-----------------|
|-----------------|-----------------|-----------------|-3-3-3-3-3-3-3-3-|
|-----------------|-----------------|-----------------|-----------------|

|-----------------|-----------------|-----------------|-----------------|
|-3-3-3-3-3-3-3-3-|-2-2-2-2-2-2-2-2-|-0-0-0-0-0-0-0-0-|-----------------|
|-----------------|-----------------|-----------------|-3-3-3-3-3-3-3-3-|
|-----------------|-----------------|-----------------|-----------------|

End

|-----------------|-----------------|-----------------|-----------------|
|-3-3-3-3-3-3-3-3-|-2-2-2-2-2-2-2-2-|-0-0-0-0-0-0-0-0-|-----------------|
|-----------------|-----------------|-----------------|-3-3-3-3-3-3-3-3-|
|-----------------|-----------------|-----------------|-----------------|

|-----------------|-----------------|-----------------|-----------------|
|-3-3-3-3-3-3-3-3-|-2-2-2-2-2-2-2-2-|-0-0-0-0-0-0-0-0-|-----------------|
|-----------------|-----------------|-----------------|-3-3-3-3-3-3-3-3-|
|-----------------|-----------------|-----------------|-----------------|

|-----------------|-----------------|-----------------|-----------------|
|-3-3-3-3-3-3-3-3-|-2-2-2-2-2-2-2-2-|-0-0-0-0-0-0-0-0-|-----------------|
|-----------------|-----------------|-----------------|-3-3-3-3-3-3-3-3-|
|-----------------|-----------------|-----------------|-----------------|

|-----------------|-----------------|-----------------|-----------------|
|-3-3-3-3-3-3-3-3-|-2-2-2-2-2-2-2-2-|-0-0-0-0-0-0-0-0-|-----------------|
|-----------------|-----------------|-----------------|-3-3-3-3-3-3-3-3-|
|-----------------|-----------------|-----------------|-----------------|

|-----------------|-----------------|-----------------|-----------------|
|-3~--------------|-2~--------------|-0~--------------|-----------------|
|-----------------|-----------------|-----------------|-3~--------------|
|-----------------|-----------------|-----------------|-----------------|
comments
We did not receive enough feedback on this tab! Please rate:
print report bad tab
1 2 3 4 5
I want to post or [tab]
guest
You may want to rate the tab now too:
select rating
Please do not post tabs as comments. Select "correction" instead!