Oops, an error
Loading. Please wait.

Outlaw Tab

ver1
ver1

Whole song

Interactive

More versions @911Tabs.com
173 views 1 this week
no commentswrite comment
1 2 3 4 5
excellent!
x 2
Autoscroll
+/-
esc
set tempo
stop
Contributor
Difficulty
Tuning
Tabbers playing skills
intermediate
D# G# C# F# A# D#
advanced ++
NEW! There's an official Ultimate Guitar app which is ideal
for learning songs when you're away from computer. Get the app
WARNING: You are trying to view
                                    content from Ultimate-Guitar.com
                                    in an unauthorized application,
                                    which is prohibited.

                                    Please use an official Ultimate
                                    Guitar Tabs application for iPhone,
                                    iPad or Android to access legitimate
                                    chords, guitar, bass, and drum tabs
                                    from Ultimate-Guitar.com database.

                                    Type "ultimate guitar tabs" in Apple
                                    App Store's or Android Market's
                                    search to find the application.
-------------------------------------------------------------------------------
                             OUTLAW - The Scream
-------------------------------------------------------------------------------


Tabbed by: Isaias Garcia (TexasFury)

Tuning: Half-step down


Guitar - rhythm

      Intro                                               
      E  E   Q    Q.     E      Q    Q.     E  E  E   
D#||-------------------------|-----------------------|
A#||-------------------------|-----------------------|
F#||-----3/--3----0------3/--|--3----0------5--7--7--|
C#||-----3/--3----0------3/--|--3----0------3--5--5--|
G#||-------------------------|-----------------------|
D#||-------------------------|-----------------------|


  E   E   Q    Q.     E      Q    Q.     E  E  E     E  E   Q    Q.     E    
--------------------------|-----------------------|-------------------------|
--------------------------|-----------------------|-------------------------|
--L\--3/--3----0------3/--|--3----0------x--x--x--|--x--3/--3----0------3/--|
--L\--3/--3----0------3/--|--3----0------x--x--x--|--x--3/--3----0------3/--|
--------------------------|-----------------------|-------------------------|
--------------------------|-----------------------|-------------------------|


  Q    Q.     E   E  E     E   E   Q    Q.     E      Q    Q.     E  E  E   
------------------------|--------------------------|-----------------------||
---------------------8--|--L\----------------------|-----------------------||
--3----0------5s--7--7--|--L\--3/--3----0------3/--|--3----0---------------||
--3----0------3s--5--5--|--L\--3/--3----0------3/--|--3----0---------------||
------------------------|--------------------------|-----------------------||
------------------------|--------------------------|--------------0--1--0--||


  Verse 1                                                              
  W                   H        E  E  E  E     H.           E  E   
-------------------|-----------------------|---------------------|
-------------------|-----------------------|------------------6--|
--5----------------|--L--------L-----------|--5------------L--5--|
--5----------------|--L--------L-----------|--5------------L--5--|
--3----------------|--L--------L-----------|--3------------L-----|
-------------------|--------------0--1--0--|---------------------|


  E  E  E  E  E  E  E  E     E  E   Q    Q.     E      Q    Q.     E   E  E   
--------------------------|-------------------------|------------------------|
-----6-----6--5-----------|-------------------------|------------------------|
-----5-----5--5-----------|-----3/--3----0------3/--|--3----0------5s--7--7--|
-----5-----5--5-----------|-----3/--3----0------3/--|--3----0------3s--5--5--|
--------------------------|-------------------------|------------------------|
-----------------0--1--2--|--3----------------------|------------------------|


  E   E   Q    Q.     E      Q    Q.     E  E   E     W                 
--------------------------|------------------------|-------------------|
--------------------------|------------------------|-------------------|
--L\--3/--3----0------3/--|--3----0----------------|--5----------------|
--L\--3/--3----0------3/--|--3----0----------------|--5----------------|
--------------------------|------------------------|--3----------------|
--------------------------|--------------0--1p--0--|-------------------|


  H        E  E  E  E     H.           E  E     E  E  E  E  E  E  E  E   
-----------------------|---------------------|--------------------------|
-----------------------|------------------6--|-----6-----6--5-----------|
--L--------L-----------|--5------------L--5--|-----5-----5--5-----------|
--L--------L-----------|--5------------L--5--|-----5-----5--5-----------|
--L--------L-----------|--3------------L-----|--------------------------|
--------------0--1--0--|---------------------|-----------------0--1--2--|


  E  E   Q    Q.     E      Q    Q.     E   E  E     E  E   Q    Q.     E    
-------------------------|------------------------|-------------------------|
-------------------------|------------------------|-------------------------|
-----3/--3----0------3/--|--3----0------5s--7--7--|--0--3/--3----0------3/--|
-----3/--3----0------3/--|--3----0------3s--5--5--|--0--3/--3----0------3/--|
-------------------------|------------------------|-------------------------|
--3----------------------|------------------------|-------------------------|


  Q    H        Q        H         E   E   Q        H        E  E  Q      
---------------------|---------------------------|-----------------------|
---------------------|------------10-------------|-----------------------|
--3----0-------------|--10------------10---------|--5-----------5--L\----|
--3----0-------------|--10----------------10\----|--5--------5-----------|
---------------------|---8-----------------------|--3--------------------|
---------------------|---------------------------|-----------------------|


                                                         Chorus 1                      
     PM PM PM PM PM PM PM    PM PM                                              
  E  E  E  E  E  E  E  E     E  E  E  E  E  E  E  E      E  E   Q    Q    E  E   
--------------------------|--------------------------||-------------------------|
--------------------------|--------------------------||-------------------------|
--3-----------------------|--------5--5--5-----------||-----3/--3----0----3--0--|
--3-----------------------|--------5--5--5-----------||-----3/--3----0----3--0--|
--1--1--1--1--1--1--1--1--|--3--3--3--3--3-----------||-------------------------|
--------------------------|-----------------0--1--2--||--3----------------------|


  PM    PM PM                                                           
  E  E  E  E  Q    E  E     H.           E  E     H        E  E  E  E   
-------------------------|---------------------|-----------------------|
----------------------5--|------------------5--|-----------------------|
--------------5----5--5--|--3------------L--5--|--5--------L-----------|
-----5--------5----5--5--|--3------------L--5--|--5--------L-----------|
--5--5--------3----3--3--|--1------------L-----|--3--------L-----------|
--3-----3--3-------------|---------------------|--------------0--1--2--|


                            PM    PM PM                                   
  E  E   Q    Q    E  E     E  E  E  E  Q    E  E     H.           E  E   
-------------------------|-------------------------|---------------------|
-------------------------|----------------------5--|------------------5--|
-----3/--3----0----3--0--|--------------5----5--5--|--3------------L--5--|
-----3/--3----0----3--0--|-----5--------5----5--5--|--3------------L--5--|
-------------------------|--5--5--------3----3--3--|--1------------L-----|
--3----------------------|--3-----3--3-------------|---------------------|


        pick scrape                                            
  Q     Q              E   E  E  E     E  E   Q    Q.     E    
------------------------------------|-------------------------|
------------------------------------|-------------------------|
--5---------------------------------|-----3/--3----0------3/--|
--5-----x\--------------------------|-----3/--3----0------3/--|
--3-----x\--------------------------|-------------------------|
-------------------10g15\--0--1--2--|--3----------------------|


  Q    Q.     E   E  E     E  E   Q    Q    Q      
------------------------|-------------------------|
------------------------|-------------------6-----|
--3----0------5s--7--7--|--0--3/--3----0----5b----|
--3----0------3s--5--5--|--0--3/--3----0----------|
------------------------|-------------------------|
------------------------|-------------------------|


                                       Verse 2                                        
  E  E    E    E    Q      Q           W                   H        E  E  E  E   
-----------------------------------||-------------------|-----------------------|
--L--6----6----6----6------L-------||-------------------|-----------------------|
--L--5pb--5pb--5pb--5pb----Lpbr----||--5----------------|--L--------L-----------|
-----------------------------------||--5----------------|--L--------L-----------|
-----------------------------------||--3----------------|--L--------L-----------|
-----------------------------------||-------------------|--------------0--1--0--|


  H.           E  E     E  E  E  E  E  E  E  E     E  E   Q    Q.     E    
---------------------|--------------------------|-------------------------|
------------------6--|-----6-----6--5-----------|-------------------------|
--5------------L--5--|-----5-----5--5-----------|-----3/--3----0------3/--|
--5------------L--5--|-----5-----5--5-----------|-----3/--3----0------3/--|
--3------------L-----|--------------------------|-------------------------|
---------------------|-----------------0--1--2--|--3----------------------|


  Q    Q.     E   E  E     E  E   Q    Q.      E    
------------------------|--------------------------|
------------------------|---------------------17b--|
--3----0------5s--7--7--|--0--3/--3----0------17b--|
--3----0------3s--5--5--|--0--3/--3----0-----------|
------------------------|--------------------------|
------------------------|--------------------------|


   E      E   E     E   Q       E  E     W                 
--------------------------------------|-------------------|
---Lpbr---L---Lbr---L---Lbr-----L-----|-------------------|
---Lpbr---L---Lbr---L---Lbr-----L--x--|--5----------------|
-----------------------------------x--|--5----------------|
--------------------------------------|--3----------------|
--------------------------------------|-------------------|


  H        E  E  E  E     H.           E  E     E  E  E  E  E  E  E  E   
-----------------------|---------------------|--------------------------|
-----------------------|------------------6--|-----6-----6--5-----------|
--L--------L-----------|--5------------L--5--|-----5-----5--5-----------|
--L--------L-----------|--5------------L--5--|-----5-----5--5-----------|
--L--------L-----------|--3------------L-----|--------------------------|
--------------0--1--0--|---------------------|-----------------0--1--2--|


  E  E   Q    Q.     E      Q    Q.     E   E  E     E  E   Q    Q.     E    
-------------------------|------------------------|-------------------------|
-------------------------|------------------------|-------------------------|
-----3/--3----0------3/--|--3----0------5s--7--7--|--0--3/--3----0------3/--|
-----3/--3----0------3/--|--3----0------3s--5--5--|--0--3/--3----0------3/--|
-------------------------|------------------------|-------------------------|
--3----------------------|------------------------|-------------------------|


  Q    H        S S E      H         E   E   Q        Q.     S  S  E  E  Q      
-----------------------|---------------------------|---------------------------|
-----------------------|------------10-------------|---------5h-6p-5-----------|
--3----0--------x-x-x--|--10------------10---------|--5---------------5--------|
--3----0--------x-x-x--|--10----------------10\----|--5------------------5\----|
-----------------------|---8-----------------------|--3------------------------|
-----------------------|---------------------------|---------------------------|


                                                         Chorus 2                      
     PM PM PM PM PM PM PM    PM PM PM PM PM                                     
  E  E  E  E  E  E  E  E     E  E  E  E  E  E  E  E      E  E   Q    Q    E  E   
--------------------------|--------------------------||-------------------------|
--------------------------|--------------------------||-------------------------|
--3-----------------------|--------------------------||-----3/--3----0----3--0--|
--3-----------------------|--------------------------||-----3/--3----0----3--0--|
--1--1--1--1--1--1--1--1--|--3--3--3--3--3-----------||-------------------------|
--------------------------|-----------------0--1--2--||--3----------------------|


  PM    PM PM                                                           
  E  E  E  E  Q    E  E     H.           E  E     H        E  E  E  E   
-------------------------|---------------------|-----------------------|
----------------------5--|------------------5--|-----------------------|
--------------5----5--5--|--3------------L--5--|--5--------L-----------|
-----5--------5----5--5--|--3------------L--5--|--5--------L-----------|
--5--5--------3----3--3--|--1------------L-----|--3--------L-----------|
--3-----3--3-------------|---------------------|--------------0--1--2--|


                            PM    PM PM                                  
  E  E   Q    Q    E  E     E  E  E  E  Q.     E     H.           E  E   
-------------------------|------------------------|---------------------|
-------------------------|------------------------|------------------5--|
-----3/--3----0----3--0--|--------------5------5--|--3------------L--5--|
-----3/--3----0----3--0--|-----5--------5------5--|--3------------L--5--|
-------------------------|--5--5--------3------3--|--1------------L-----|
--3----------------------|--3-----3--3------------|---------------------|


                       pick scrape         
  W                    W                   
-------------------|---------------------||
-------------------|---------------------||
--5----------------|---------------------||
--5----------------|---x\----------------||
--3----------------|---x\----------------||
-------------------|---------------------||



  Chorus 3 - m.90                                                                      
                                PM    PM PM                                   
  E  E   Q    Q    E  E     E  E  E  E  Q    E  E     H.           E  E   
-------------------------|-------------------------|---------------------|
-------------------------|----------------------5--|------------------5--|
-----3/--3----0----3--0--|--------------5----5--5--|--3------------L--5--|
-----3/--3----0----3--0--|-----5--------5----5--5--|--3------------L--5--|
-------------------------|--5--5--------3----3--3--|--1------------L-----|
--3----------------------|--3-----3--3-------------|---------------------|


                                                    PM    PM PM             
  H        E  E  E  E     E  E   Q    Q    E  E     E  E  E  E  Q    E  E   
-----------------------|-------------------------|-------------------------|
-----------------------|-------------------------|----------------------5--|
--5--------L-----------|-----3/--3----0----3--0--|--------------5----5--5--|
--5--------L-----------|-----3/--3----0----3--0--|-----5--------5----5--5--|
--3--------L-----------|-------------------------|--5--5--------3----3--3--|
--------------0--1--2--|--3----------------------|--3-----3--3-------------|


  H.           E  E     H        E  E  E  E     E  E   Q    Q    E  E   
---------------------|-----------------------|-------------------------|
------------------5--|-----------------------|-------------------------|
--3------------L--5--|--5--------L-----------|-----3/--3----0----3--0--|
--3------------L--5--|--5--------L-----------|-----3/--3----0----3--0--|
--1------------L-----|--3--------L-----------|-------------------------|
---------------------|--------------0--1--2--|--3----------------------|


  PM    PM PM                                                           
  E  E  E  E  Q    E  E     H.           E  E     H        E  E  E  E   
-------------------------|---------------------|-----------------------|
----------------------5--|------------------5--|-----------------------|
--------------5----5--5--|--3------------L--5--|--5--------L-----------|
-----5--------5----5--5--|--3------------L--5--|--5--------L-----------|
--5--5--------3----3--3--|--1------------L-----|--3--------L-----------|
--3-----3--3-------------|---------------------|--------------0--1--2--|


                            PM    PM PM             
  E  E   Q    Q    E  E     E  E  E  E  Q    E  E   
-------------------------|-------------------------|
-------------------------|----------------------5--|
-----3/--3----0----3--0--|--------------5----5--5--|
-----3/--3----0----3--0--|-----5--------5----5--5--|
-------------------------|--5--5--------3----3--3--|
--3----------------------|--3-----3--3-------------|


  E   S S  S S E   S S  S S S  S S  S  
--------------------------------------|
--------------------------------------|
--3p--0--------3p--0--------5p-3------|
--------3p-0---------3p-0--------5p-3-|
-------------3------------3-----------|
--------------------------------------|


                                             Outro                       
                       PH                                           
  S  S S  S S  S  E    E    S  S S  S E      E  E   Q    Q.     E    
-----------------------------------------||-------------------------|
-----------------------------------------||-------------------------|
-------5p-3----------<>5br--Lp-3---------||-----3/--3----0------3/--|
------------5p-3p-0--------------5p-3-0--||-----3/--3----0------3/--|
--5p-3-----------------------------------||-------------------------|
-----------------------------------------||--3----------------------|


  Q    Q.     E  E  E     E   E   Q    Q.     E      Q    Q.     E  E  E   
-----------------------|--------------------------|-----------------------|
-----------------------|--------------------------|-----------------------|
--3----0------5--7--7--|--L\--3/--3----0------3/--|--3----0------x--x--x--|
--3----0------3--5--5--|--L\--3/--3----0------3/--|--3----0------x--x--x--|
-----------------------|--------------------------|-----------------------|
-----------------------|--------------------------|-----------------------|


  E  E   Q    Q.     E      Q    Q.     E  E  E     E   E   Q    Q     Q      
-------------------------|-----------------------|---------------------------|
-------------------------|-----------------------|---------------------------|
-----3/--3----0------3/--|--3----0------5--7--7--|--L\--3/--3----0-----------|
-----3/--3----0------3/--|--3----0------3--5--5--|--L\--3/--3----0-----------|
-------------------------|-----------------------|---------------------------|
--3----------------------|-----------------------|--------------------15\----|


  E  E  E  E  E  E  E  E     E  E  Q.     E   Q       
--------------------------|-------------------------||
--------------------------|-------------------------||
--5--5-----3--------------|-------------------------||
--5--5-----3-----3-----5--|--5--5--5------L\--x~----||
--3--3-----1-----3-----5--|--5--5--5------L\--x~----||
-----------------1-----3--|--3--3--3------L\--x~----||



Guitar - lead

          m.70                           
          E   E   E    E    H          
D#||--10g15---------------------------|
A#||---------15--18b--18b---L~--------|
F#||----------------------------------|
C#||----------------------------------|
G#||----------------------------------|
D#||----------------------------------|


                   |--3--|  |--3--|  |---3---|        
   Q       E   E   S  S  S  S  S  S  S   S   S  S  S  
----------15--17--18-17-15----15-17-18p-17p-15----15-|
--18b~---------------------18------------------18----|
-----------------------------------------------------|
-----------------------------------------------------|
-----------------------------------------------------|
-----------------------------------------------------|


   |---3---|        |--3--|        |--3--|                      
   S   S   S  S  S  S  S  S  S  S  S  S  S  S  S  S   S   S  S  
--18p-17p-15----15---------------------------------------------|
-------------18----18-17-15----15-18-17-15----15---------------|
----------------------------18-------------18----18p-17p-15----|
------------------------------------------------------------17-|
---------------------------------------------------------------|
---------------------------------------------------------------|


                        \4     /2                           
   E   E   S    S   E   Q.     E     Q      H        Q      
----------------------------------|------------------------|
----------------------------------|------------------------|
--15--17--17br--Lb-15---L------0--|--5br----L--------5b----|
----------------------------------|------------------------|
----------------------------------|------------------------|
----------------------------------|------------------------|


  H          E  E  Q        H         E  S  S S S  S  S  
-------------3-----------|------------3-----------------|
----------------3--6b----|--L~-----------6p-3---3h-6p-3-|
--Lb~--------------------|--------------------6---------|
-------------------------|------------------------------|
-------------------------|------------------------------|
-------------------------|------------------------------|


  S  S S S S  S  E  Q     Q            E   E   E      E   E   E      E   E   
--------------------------------|-------------------------------------------|
--6p-3---3----------------------|---9g11--11--11---9g11--11--11---9g11--11--|
-------6---6p-5p-3--L~----L\----|--10g12--12--12--10g12--12--12--10g12--12--|
--------------------------------|-------------------------------------------|
--------------------------------|-------------------------------------------|
--------------------------------|-------------------------------------------|


   E      E   E   E      E   E   Q      
---------------------------------------|
--11---9g11--11--11---9g11--11--11\----|
--12--10g12--12--12--10g12--12--12\----|
---------------------------------------|
---------------------------------------|
---------------------------------------|


                      |--3--|      |--3--|                                  
    E  E  E   E    E  S  S  S  E   S  S  S     E   E   Q      Q      Q      
--6g8--8--8--11b---L--8-------11b--8-------|--11~--------------------------|
--6g8--8--8-------------11p-8------8-11p-8-|-------x-----------------------|
-------------------------------------------|-------x--10br----8~-----------|
-------------------------------------------|------------------------10\----|
-------------------------------------------|-------------------------------|
-------------------------------------------|-------------------------------|


   S   S  S   S  S   S  S  S  Q      S   S  S  S  
------------------------------------15h-19----15-|
--------------------------15-18b-----------18----|
-----------------------16------------------------|
----------------15h-17---------------------------|
---------14h-16----------------------------------|
--11h-13-----------------------------------------|


   S  S   S  S  S   S  S  S   S   S  S  S   S   S  S  S  
--20-----15-19-----15-20-----15h-19----15h-17p-15----15-|
-----18b-------18b-------18b--------18------------18----|
--------------------------------------------------------|
--------------------------------------------------------|
--------------------------------------------------------|
--------------------------------------------------------|


   S   S  S   S  S  S  S   S  S   S  S   S  Q       
-------------------15------------------------------|
--18p-15-17p-15-------18p-15-17p-15--------18br----|
----------------18------------------17p-15---------|
---------------------------------------------------|
---------------------------------------------------|
---------------------------------------------------|


   E   E   S   S  S   S  S   S   E    E    E    
------15---------------------------------------|
---L------18p-15-----15------------------------|
-----------------17b----18p-17p-15~---L~---L\--|
-----------------------------------------------|
-----------------------------------------------|
-----------------------------------------------|


   E  E  S  S S S  S S  S  S S  S  S S  
---------------------------------------|
---------------------------------------|
---L-----------------------------------|
------0--4p-0-0-7p-0-0-10p-0-0-12p-0-0-|
---------------------------------------|
---------------------------------------|


   S  S  S  S  S  S  E    Q        E    E    
--------------------------------------------|
--------------------------------------------|
--------------------------------------------|
--10p-0-12p-0-16p-0-16b---Lpbr-----L~---L\--|
--------------------------------------------|
--------------------------------------------|


   E      E   E   E   E    E   E   E       E   E    E   E   E    E   E    E   
-------------15-----------15------18b--|--15-------15-----------15-----------||
-----------------15--18b------15-------|------18b------15--18b------15h--18--||
------12g17----------------------------|-------------------------------------||
---L-----------------------------------|-------------------------------------||
---------------------------------------|-------------------------------------||
---------------------------------------|-------------------------------------||


   Chorus 3                                                            
   W                      H          S   S  E      S  S   S   S  
----------------------|-----------------------------------------|
--18b~----------------|---L~--------18p-15----------------------|
----------------------|--------------------17pbr---L-15h-17p-15-|
----------------------|-----------------------------------------|
----------------------|-----------------------------------------|
----------------------|-----------------------------------------|


                         \4                  
   W                     H        H          
---------------------|---------------------|
---------------------|---------------------|
--15~----------------|--17-----------------|
--15~----------------|--17-----------------|
---------------------|---------------------|
---------------------|---------------------|



Duration Legend
---------------
W - whole
H - half
Q - quarter
E - 8th
S - 16th
T - 32nd
. - note dotted
|-n-|  - n-tuplets


Tablature Legend
----------------
L - tied note
x - dead note
g - grace note
AH - artificial harmonic
h - hammer on
p - pull off
b - bend
br - bendRelease
pb - preBend
pbr - preBendRelease
brb - bendReleaseBend
\n/ - tremolo bar dip
\n - tremolo bar dive
-/n - tremolo bar Release up
/n\ - tremolo bar inverted dip
/n - tremolo bar return
-\n - tremolo bar Release down
S - shift slide
s - legato slide
/ -  slide into from below or out of upwards
\ -  slide into from above or out of downwards
~ - vibrato


Get my other tabs for Guitar Pro, Powertab, guitar/bass text and chords at
http://profile.ultimate-guitar.com/TexasFury/contributions/
comments
We did not receive enough feedback on this tab! Please rate:
print report bad tab
1 2 3 4 5
I want to post or [tab]
guest
You may want to rate the tab now too:
select rating
Please do not post tabs as comments. Select "correction" instead!