Oops, an error
Loading. Please wait.

Celestia Tab

91 views 1 this week
no commentswrite comment
1 2 3 4 5
excellent!
x 1
Autoscroll
+/-
esc
set tempo
stop
Contributor
WARNING: You are trying to view
                                    content from Ultimate-Guitar.com
                                    in an unauthorized application,
                                    which is prohibited.

                                    Please use an official Ultimate
                                    Guitar Tabs application for iPhone,
                                    iPad or Android to access legitimate
                                    chords, guitar, bass, and drum tabs
                                    from Ultimate-Guitar.com database.

                                    Type "ultimate guitar tabs" in Apple
                                    App Store's or Android Market's
                                    search to find the application.
-------------------------------------------------------------------------------
			     CELESTIA – Season’s End
-------------------------------------------------------------------------------
Tabbed by: Littleleo88
Email: b.gillam@gmail.com  (msn = littleleo88@aol.com)

Tuning: Standard
Band Website: http://www.seasons-end.com

Note:  Most sections have two guitar parts. Where this is true, I have joined the tab 
together with a |
Some sections have one guitar part, or both guitars are playing the same line
For those interested in which line Dave plays in live performances in parts with two guitars, he 
plays the top line each time.

Intro  0:00
e|----------------------------------------------------------------------|
B|----------------------------------------------------------------------|
G|----------------------------------------------------------------------|
D|-----2---4---5-----5---5---5---5-----2---4---5---5/7---5---4---5------|
A|---2---2---2---2-3---3---0---0-----2---2---2---2-----0---0---0---0----|
E|-0-------------------------------0------------------------------------|

e|--------------------------------------------------------|
B|--------------------------------------------------------|
G|--------------------------------------------------------|
D|-----2---4---5-----5---5---5---5-----2---4---5---5/7----|
A|---2---2---2---2-3---3---0---0-----2---2---2---2-----0--|
E|-0-------------------------------0----------------------|

e|------------|-----------------------------------------------------------------|
B|------------|-----------------------------------------------------------------|
G|------------|*-------------------------------------------------4-------------*|
D|-5---4---5--|---2---2---4---5-5-5---5---4--2---2--2--2--4--5---4--------------|
A|---0---0---0|*--2---2---4---5-5-5---5---4--2---2--2--2--4--5---2-------------*|
E|------------|---0---0---2---3-3-3---3---2--0---0--0--0--2--3------------------|
 |
e|------------------------------------------------------------------------------|
B|------------------------------------------------------------------------------|
G|*----------------------------------------------------------------------------*|
D|-/10--7/9\7--\5--/10-7/9\4/9-9-9--/10-7/9\7-\5--/10-7/9\4/9-9p7h9-------------|
A|*----------------------------------------------------------------------------*|
E|------------------------------------------------------------------------------|
 |
e|--------------0-------------------------------0-------------------------------|
B|--------------0-------------------------------0-------------------------------|
G|--------------2-------------------------------2-------------------------------|
D|--------------2-------------------------------2-------------------------------|
A|------------------------------------------------------------------------------|
E|------------------------------------------------------------------------------|
 This third guitar part is played strumming from e to D.

 0:58
e|---------------------------------------------------------------------------|
B|---------------------------------------------------------------------------|
G|---------------------------------------------------------------------------|
D|----2----------------------------------------------------------------------|
A|----2----------------------------------------------------------------------|
E|19\-0----------------------------------------------------------------------|
 |
e|------------------------------------------------------------------------|
B|------------------------------------------------------------------------|
G|------------------------------------------------------------------------|
D|-----2---4---5-----5---5---5---5-----2---4---5---5/7---5---4---4h5p4----|
A|---2---2---2---2-3---3---0---0-----2---2---2---2-----0---0---0-------5--|
E|-0-------------------------------0--------------------------------------|

e|------------------------------------------------------------------------|
B|------------------------------------------------------------------------|
G|------------------------------------------------------------------------|
D|------------------------------------------------------------------------|
A|------------------------------------------------------------------------|
E|------------------------------------------------------------------------|
 |
e|------------------------------------------------------------------------|
B|------------------------------------------------------------------------|
G|------------------------------------------------------------------------|
D|-----2---4---5-----5---5---5---5-----2---4---5---5/7---5---4---4h5p4----|
A|---2---2---2---2-3---3---0---0-----2---2---2---2-----0---0---0-------5--|
E|-0-------------------------------0--------------------------------------|

e|------------------------------------------------------------------------|
B|-------3--------3--------3--------3-------3-------3-------3-------3-----|
G|-----4--------4--------4--------4-------4-------4-------4-------4-------|
D|------------------------------------------------------------------------|
A|------------------------------------------------------------------------|
E|------------------------------------------------------------------------|
 |
e|------------------------------------------------------------------------|
B|------------------------------------------------------------------------|
G|------------------------------------------------------------------------|
D|-----2---4---5-----5---5---5---5-----2---4---5---5/7---5---4---4h5p4----|
A|---2---2---2---2-3---3---0---0-----2---2---2---2-----0---0---0-------5--|
E|-0-------------------------------0--------------------------------------|

e|------------------------------------------------------------------------|
B|-------3--------3--------3--------3-------3-------3-------3-------------|
G|-----4--------4--------4--------4-------4-------4-------4---------------|
D|--------------------------------------------------------------------2---|
A|--------------------------------------------------------------------2---|
E|--------------------------------------------------------------------0---|
 |
e|------------------------------------------------------------------------|
B|------------------------------------------------------------------------|
G|------------------------------------------------------------------------|
D|-----2---4---5-----5---5---5---5-----2---4---5---5/7-----/10-7/9\7-\5---|
A|---2---2---2---2-3---3---0---0-----2---2---2---2------------------------|
E|-0-------------------------------0--------------------------------------|
 |
e|---------------------------------------------------------------------0--|
B|---------------------------------------------------------------------0--|
G|---------------------------------------------------------------------2--|
D|---------------------------------------------------------------------2--|
A|------------------------------------------------------------------------|
E|------------------------------------------------------------------------|
Third guitar part strummed from e to D

E|-----------------------------------------------------------------|
B|-----------------------------------------------------------------|
G|--------------------------------------------4--------------------|
D|---2--2--4--5-5-5---5--4--2--2-2--2--4--5---4--------------------|
A|---2--2--4--5-5-5---5--4--2--2-2--2--4--5---2--------------------|
E|---0--0--2--3-3-3---3--2--0--0-0--0--2--3------------------------|
 |
e|-----------------------------------------------------------------|
B|-----------------------------------------------------------------|
G|-----------------------------------------------------------------|
D|--/10-7/9\4/9-9-9--/10-7/9\7-\5--/10-7/9\4/9-9p7h9---------------|
A|-----------------------------------------------------------------|
E|-----------------------------------------------------------------|
 |
e|------------------------------0----------------------------------|
B|------------------------------0----------------------------------|
G|------------------------------2----------------------------------|
D|------------------------------2----------------------------------|
A|-----------------------------------------------------------------|
E|-----------------------------------------------------------------|


e|---------------------------------------------------------------------------|
B|---------------------------------------------------------------------------|
G|-------------------------------------------------------------4-------------|
D|-2-----2----4-----5--------5---4------2-------2---4-----5----4-------------|
A|-2-----2----4-----5--------5---4------2-------2---4-----5----2-------------|
E|-0-----0----2-----3--------3---2------0-------0---2-----3------------------|
 |
e|---------------------------------------------------------------------------|
B|---------------------------------------------------------------------------|
G|---------------------------------------------------------------------------|
D|-4/5-----/10-7/9\4-/9------/10-7/9\7--\5------/10-7/9\4--/9----------------|
A|---------------------------------------------------------------------------|
E|---------------------------------------------------------------------------|
 |
e|---0------------------------------------0----------------------------------|
B|---0------------------------------------0----------------------------------|
G|---2------------------------------------2----------------------------------|
D|---2------------------------------------2----------------------------------|
A|---------------------------------------------------------------------------|
E|---------------------------------------------------------------------------|


Interlude  2:14
e|--------------------------------------------------------------------------------|
B|-10/12—10/12\10--------10/12\10-12--10/12-10/12\10-10/12-/15-15-13-13-/15-10/12-|
G|----------------7-7/9-----------------------------------------------------------|
D|--------------------------------------------------------------------------------|
A|--------------------------------------------------------------------------------|
E|--------------------------------------------------------------------------------|

e|--------------------------------------------------------------------------------|
B|-7-7h8p7---10/12-10/12\10-------10h12p10-/12-10/12-10/12\10-10/12-/15-15-13-13--|
G|---------9----------------7-7/9-------------------------------------------------|
D|--------------------------------------------------------------------------------|
A|--------------------------------------------------------------------------------|
E|--------------------------------------------------------------------------------|

e|---------------------------------------------------------------------------|
B|-12-10/12------------------10/12-10h12p10-------10/12\10-/12---------------|
G|----------11h12p11-9----9-----------------7-7/9----------------------------|
D|---------------------12----------------------------------------------------|
A|---------------------------------------------------------------------------|
E|---------------------------------------------------------------------------|

e|----------------------------------------------------------------------------------|
B|-10/12-10h12p10-10/12-/15-15-13-13-15-10-12-10h12p10---------10/12-10/12\10-------|
G|-----------------------------------------------------12-11-12--------------7-7/9--|
D|----------------------------------------------------------------------------------|
A|----------------------------------------------------------------------------------|
E|----------------------------------------------------------------------------------|

e|---------------------------------------------------------------------------|
B|-10h12p10/12-10/12-10h12p10-10-/12-/15-15-13-13-12~~~~~~\------------------|
G|---------------------------------------------------------------------------|
D|---------------------------------------------------------------------------|
A|---------------------------------------------------------------------------|
E|---------------------------------------------------------------------------|

e|---------------------------------------------------------------------------|
B|-------3-----------2-----------0-----------0-------------------------------|
G|-----4---4-------4---4-------2---2-------0---0-----------------------------|
D|---4-------4---4-------4---2-------2---0-------0---------------------------|x5
A|-2-----------2-----------0-------------------------------------------------|
E|-------------------------------------3-------------------------------------|

e|-----------------------------------------2--------------------------------|
B|-------3-----------2-----------0---------3--------------------------------|
G|-----4---4-------4---4-------2---2-------4--------------------------------|
D|---4-------4---4-------4---2-------2-----4--------------------------------|
A|-2-----------2-----------0---------------2--------------------------------|
E|-----------------------------------------2--------------------------------|

Heavy Breakdown  3:58
e|------------------------------------------------------------------------------------|
B|------------------------------------------------------------------------------------|
G|------------------------------------------------------------------------------------|
D|-9---------9---------9---------7-----4-5---------5---------7---------7--------------|
A|-9---------9---------9---------7-----4-5---------5---------7---------7--------------|
E|-7-7-7-7-7-7-7-7-7-7-7-7-7-7-7-5-5-5-2-3-3-3-3-3-3-3-3-3-3-5-5-5-5-5-5-5-5-5-5------|
     . . . .   . . . .   . . . .   . .     . . . .   . . . .   . . . .   . . . .

e|------------------------------------------------------------------------------------|
B|------------------------------------------------------------------------------------|
G|------------------------------------------------------------------------------------|
D|-9---------9---------9---------7-----4-5---------5---------7---------4--------------|
A|-9---------9---------9---------7-----4-5---------5---------7---------4--------------|
E|-7-7-7-7-7-7-7-7-7-7-7-7-7-7-7-5-5-5-2-3-3-3-3-3-3-3-3-3-3-5-5-5-5-5-2-2-2-2-2------|
     . . . .   . . . .   . . . .   . .     . . . .   . . . .   . . . .   . . . .

e|------------------------------------------------------------------------------------|
B|------------------------------------------------------------------------------------|
G|------------------------------------------------------------------------------------|
D|-9---------9---------9---------7-----4-5---------5---------7---------7---7--7-------|
A|-9---------9---------9---------7-----4-5---------5---------7---------7---7--7-------|
E|-7-7-7-7-7-7-7-7-7-7-7-7-7-7-7-5-5-5-2-3-3-3-3-3-3-3-3-3-3-5-5-5-5-5-5---5--5-------|
     . . . .   . . . .   . . . .   . .     . . . .   . . . .   . . . .

e|------------------------------------------------------------------------------------|
B|------------------------------------------------------------------------------------|
G|------------------------------------------------------------------------------------|
D|-9---------9---------9---------7-----4-5---------5---------7---------4--------------|
A|-9---------9---------9---------7-----4-5---------5---------7---------4--------------|
E|-7-7-7-7-7-7-7-7-7-7-7-7-7-7-7-5-5-5-2-3-3-3-3-3-3-3-3-3-3-5-5-5-5-5-2--------------|
     . . . .   . . . .   . . . .   . .     . . . .   . . . .   . . . .

e|---------------------------------------------------------------------------|
B|-------3-----------2-----------0-----------0-------------------------------|
G|-----4---4-------4---4-------2---2-------0---0-----------------------------|
D|---4-------4---4-------4---2-------2---0-------0---------------------------|x4
A|-2-----------2-----------0-------------------------------------------------|
E|-------------------------------------3-------------------------------------|

e|------------------------------------------------------------------------------------|
B|------------------------------------------------------------------------------------|
G|------------------------------------------------------------------------------------|
D|-9---------9---------9---------7-----4-5---------5---------7---------7--------------|
A|-9---------9---------9---------7-----4-5---------5---------7---------7--------------|
E|-7-7-7-7-7-7-7-7-7-7-7-7-7-7-7-5-5-5-2-3-3-3-3-3-3-3-3-3-3-5-5-5-5-5-5-5-5-5-5------|
     . . . .   . . . .   . . . .   . .     . . . .   . . . .   . . . .   . . . .

e|------------------------------------------------------------------------------------|
B|------------------------------------------------------------------------------------|
G|------------------------------------------------------------------------------------|
D|-9---------9---------9---------7-----4-5---------5---------7---------4--------------|
A|-9---------9---------9---------7-----4-5---------5---------7---------4--------------|
E|-7-7-7-7-7-7-7-7-7-7-7-7-7-7-7-5-5-5-2-3-3-3-3-3-3-3-3-3-3-5-5-5-5-5-2-2-2-2-2------|
     . . . .   . . . .   . . . .   . .     . . . .   . . . .   . . . .   . . . .

e|------------------------------------------------------------------------------------|
B|------------------------------------------------------------------------------------|
G|------------------------------------------------------------------------------------|
D|-9---------9---------9---------7-----4-5---------5---------7---------7---7--7-------|
A|-9---------9---------9---------7-----4-5---------5---------7---------7---7--7-------|
E|-7-7-7-7-7-7-7-7-7-7-7-7-7-7-7-5-5-5-2-3-3-3-3-3-3-3-3-3-3-5-5-5-5-5-5---5--5-------|
     . . . .   . . . .   . . . .   . .     . . . .   . . . .   . . . .

e|------------------------------------------------------------------------------------|
B|------------------------------------------------------------------------------------|
G|------------------------------------------------------------------------------------|
D|-9---------9---------9---------7-----4-5---------5---------7---------4--------------|
A|-9---------9---------9---------7-----4-5---------5---------7---------4--------------|
E|-7-7-7-7-7-7-7-7-7-7-7-7-7-7-7-5-5-5-2-3-3-3-3-3-3-3-3-3-3-5-5-5-5-5-2--------------|
 |   . . . .   . . . .   . . . .   . .     . . . .   . . . .   . . . .
e|------------------------------------------------------------------------------------|
B|------------------------------------------------------------------------------------|
G|----------------------------------------------------------------11-12-11------------|
D|----------------------------------11-11-11-12-12-12-12-12-12-14----------14-14\\\\--|
A|------------------------------------------------------------------------------------|
E|------------------------------------------------------------------------------------|


e|---------------------------------------------------------------------------|
B|---------------------------------------------------------------------------|
G|-------------------------------5-4-2---------------------------------------|
D|-2---------2---------2---------5-4-2-5---------5---------4---------4-5-4---|
A|-2---------2---------2---------3-2-0-5---------5---------4---------4-5-4---|
E|-0-0-0-0-0-0-0-0-0-0-0-0-0-0-0-------3-3-3-3-3-3-3-3-3-3-2-2-2-2-2-2-3-2---|
     . . . .   . . . .   . . . .         . . . .   . . . .   . . . .

e|---------------------------------------------------------------------------|
B|---------------------------------------------------------------------------|
G|-------------------------------5-4-2---------------------------------------|
D|-2---------2---------2---------5-4-2-5---------5---------7---------4-5-4---|
A|-2---------2---------2---------3-2-0-5---------5---------7---------4-5-4---|
E|-0-0-0-0-0-0-0-0-0-0-0-0-0-0-0-------3-3-3-3-3-3-3-3-3-3-5-5-5-5-5-2-3-2---|
     . . . .   . . . .   . . . .         . . . .   . . . .   . . . .

e|---------------------------------------------------------------------------|
B|---------------------------------------------------------------------------|
G|-------------------------------5-4-2---------------------------------------|
D|-2---------2---------2---------5-4-2-5---------5---------4---------4-5-4---|
A|-2---------2---------2---------3-2-0-5---------5---------4---------4-5-4---|
E|-0-0-0-0-0-0-0-0-0-0-0-0-0-0-0-------3-3-3-3-3-3-3-3-3-3-2-2-2-2-2-2-3-2---|
     . . . .   . . . .   . . . .         . . . .   . . . .   . . . .

e|---------------------------------------------------------------------------|
B|---------------------------------------------------------------------------|
G|-------------------------------5-4-2-5h7p5-4h5p4---4-----------------------|
D|-2---------2---------2---------5-4-2—------------7---7—5h7p5---------------|
A|-2---------2---------2---------3-2-0---------------------------------------|
E|-0-0-0-0-0-0-0-0-0-0-0-0-0-0-0---------------------------------------------|

Harmony 5:25
e|---------------------------------------------------------------------------|
B|---------------------------------------------------------------------------|
G|-2----------2-----------2----5---------------------------------------------|
D|-2-----3----2-----3-----2----5----3--------3---5---------------------------|x2
A|-0-----3----0-----3-----0----3----3--------3---5---------------------------|
E|-------1----------1---------------1----1-1-1---3---------------------------|
					   . .
e|----------------------------------------------------------------------------------------|
B|----------------------------------------------------------------------------------------|
G|-2----------------2-----------------2-----5---------------------------------------------|
D|-2-----3----------2-----3-----------2-----5----------3--------3---5---------------------|x2
A|-0-----3----------0-----3-----------0-----3----------3--------3---5---------------------|
E|-------1----------------1----------------------------1----1-1-1---3---------------------|
 |		      			                      . .
e|-----0--------1-0-----0---------1-------0-------1-0----------8------8-----8---8---------|
B|-----1--------1-------1-----1-----1-----1-------1------------10-10---10---10---10-------|
G|-----2------2-2-------2-------2---------2-----2-2--------2---9-----9----9---9----9------|
D|---2-2----3---------2-2---3-----------2-2---3----------2---2----------------------------|x2
A|-0------0---------0-----0-----------0-----0----------0----------------------------------|
E|----------------------------------------------------------------------------------------|

Guitar Breakdown  6:23
e|-----------------------------------------------------------------------------------|
B|-----------------------------------------------------------------------------------|
G|----------------------------------------8-8-8--------------------------------------|
D|-5-5-5----------------------------------8-8-8--------------------------------------|
A|-5-5-5----------------------------------6-6-6--------------------------------------|
E|-3-3-3-----------------------------------------------------------------------------|
 |
e|-----------------------------------------------------------------------------------|
B|-----------------------------------------------------------------------------------|
G|-12-12-7-7-8-8-------7-7---------------12-12-7-7-8-8-------7-7---------------------|
D|---------------10-10-----8-8-10-10-5-5---------------10-10-----8-8-10-10-5-5-------|
A|-----------------------------------------------------------------------------------|
E|-----------------------------------------------------------------------------------|

e|-----------------------------------------------------------------------------------|
B|-----------------------------------------------------------------------------------|
G|---------------------------------------5-5---------------3-------------------------|
D|-5-5-5---------------------------------5-5---------------3-------------------------|
A|-5-5-5---------------------------------3-3---------------1--------x\\\\\\----------|
E|-3-3-3------------------------------------------------------------x\\\\\\----------|
 |								Pick scrape down the neck
e|-----------------------------------------------------------------------------------|
B|-----------------------------------------------------------------------------------|
G|-12-12-7-7-8-8-------7-7---------------12-12-7-7-8-8-------7-7---------------------|
D|---------------10-10-----8-8-10-10-5-5---------------10-10-----8-8-10-10-5-5-------|
A|-----------------------------------------------------------------------------------|
E|-----------------------------------------------------------------------------------|

e|-------------------------------------------------------------------------------------------|
B|-------------------------------------------------------------------------------------------|
G|------------------------------------------------8-----8-----8-----8-----8-----8-----8-----8|
D|-5-----5-----5-----5-----5-----5-----5-----5----8-----8-----8-----8-----8-----8-----8-----8|
A|-5-----5-----5-----5-----5-----5-----5-----5----6-6-6-6-6-6-6-6-6-6-6-6-6-6-6-6-6-6-6-6-6-6|
E|-3-3-3-3-3-3-3-3-3-3-3-3-3-3-3-3-3-3-3-3-3-3-3-3-------------------------------------------|
 |   . .   . .   . .   . .   . .   . .   . .   . .  . .   . .   . .   . .   . .   . .   ..
e|-------------------------------------------------------------------------------------------|
B|-------------------------------------------------------------------------------------------|
G|-12-12--7-7--8-8---------7-7-------------------12-12--7-7--8-8--------7-7------------------|
D|------------------10-10-------8-8--10-10--5-5------------------10-10-------8-8--10-10--5-5-|
A|-------------------------------------------------------------------------------------------|
E|-------------------------------------------------------------------------------------------|

e|-------------------------------------------------------------------------------------|
B|-------------------------------------------------------------------------------------|
G|-------------------------------------------------5-------------3---------------------|
D|-5-----5-----5-----5-----5-----5-----5-----5-----5-------------3---------------------|
A|-5-----5-----5-----5-----5-----5-----5-----5-----3-------------1---------------------|
E|-3-3-3-3-3-3-3-3-3-3-3-3-3-3-3-3-3-3-3-3-3-3-3-3-------------------------------------|
 |   . .   . .   . .   . .   . .   . .   . .   . .
e|-------------------------------------------------------------------------------------|
B|-------------------------------------------------------------------------------------|
G|--12-12--7-7--8-8--------7-7-------------------12-12-7-7-8-8-------7-7---------------|
D|------------------10-10-------8-8--10-10--5-5----------------10-10-----8-8-10-10-5-5-|
A|-------------------------------------------------------------------------------------|
E|-------------------------------------------------------------------------------------|

e|------------------------------------------------------------------------------------|
B|------------------------------------------------------------------------------------|
G|---------------------------------------8-8------8-8------8-8------8-8---------------|
D|-5-5------5-5------5-5------5-5--------8-8------8-8------8-8------8-8---------------|
A|-5-5------5-5------5-5------5-5--------6-6--6-6-6-6--6-6-6-6--6-6-6-6--6-6----------|
E|-3-3--3-3-3-3--3-3-3-3--3-3-3-3--3-3------------------------------------------------|
 |      . .      . .      . .      . .        . .      . .      . .      . .
e|------------------------------------------------------------------------------------|
B|------------------------------------------------------------------------------------|
G|-12-12-7-7-8-8-------7-7---------------12-12-7-7-8-8-------7-7----------------------|
D|---------------10-10-----8-8-10-10-5-5---------------10-10-----8-8-10-10-5-5--------|
A|------------------------------------------------------------------------------------|
E|------------------------------------------------------------------------------------|

e|-----------------------------------------------------------------------------------|
B|-----------------------------------------------------------------------------------|
G|---------------------------------------5-5------5-5------3-3------3-3--------------|
D|-5-5------5-5------5-5------5-5--------5-5------5-5------3-3------3-3--------------|
A|-5-5------5-5------5-5------5-5--------3-3--3-3-3-3--3-3-1-1--1-1-1-1--1-1---------|
E|-3-3--3-3-3-3--3-3-3-3--3-3-3-3--3-3-----------------------------------------------|
 |      . .      . .      . .      . .        . .      . .      . .      . .
e|-----------------------------------------------------------------------------------|
B|-----------------------------------------------------------------------------------|
G|-12-12-7-7-8-8-------7-7---------------12-12-7-7-8-8-------7-7---------------------|
D|---------------10-10-----8-8-10-10-5-5---------------10-10-----8-8-10-10-5-5-------|
A|-----------------------------------------------------------------------------------|
E|-----------------------------------------------------------------------------------|

e|-----------------------------------------------------------------------------------|
B|-----------------------------------------------------------------------------------|
G|-----------------------------------------5-5--5-5--5-5--5-5--5-5--5-5--5-5--5-5----|
D|-5-5--5-5--5-5--5-5--5-5--5-5--5-5--5-5--5-5--5-5--5-5--5-5--5-5--5-5--5-5--5-5----|
A|-5-5--5-5--5-5--5-5--5-5--5-5--5-5--5-5--3-3--3-3--3-3--3-3--3-3--3-3--3-3--3-3----|
E|-3-3--3-3--3-3--3-3--3-3--3-3--3-3--3-3--------------------------------------------|
 |
e|-----------------------------------------------------------------------------------|
B|-----------------------------------------------------------------------------------|
G|-12-12-7-7-8-8-------7-7-----------------12-12-7-7-8-8-------7-7-------------------|
D|---------------10-10-----8-8-10-10-5-5-----------------10-10-----8-8-10-10-5-5-----|
A|-----------------------------------------------------------------------------------|
E|-----------------------------------------------------------------------------------|

e|-----------------------------------------------------------------------------------|
B|-----------------------------------------------------------------------------------|
G|-----------------------------------------5-5--5-5--5-5--5-5--3-3--3-3--3-3--3-3----|
D|-5-5--5-5--5-5--5-5--5-5--5-5--5-5--5-5--5-5--5-5--5-5--5-5--3-3--3-3--3-3--3-3----|
A|-5-5--5-5--5-5--5-5--5-5--5-5--5-5--5-5--3-3--3-3--3-3--3-3--1-1--1-1--1-1--1-1----|
E|-3-3--3-3--3-3--3-3--3-3--3-3--3-3--3-3--------------------------------------------|
 |
e|-----------------------------------------------------------------------------------|
B|-----------------------------------------------------------------------------------|
G|-12-12-7-7-8-8-------7-7---------------12-12-7-7-8-8-------7-7---------------------|
D|---------------10-10-----8-8-10-10-5-5---------------10-10-----8-8-10-10-5-5-------|
A|-----------------------------------------------------------------------------------|
E|-----------------------------------------------------------------------------------|

e|-----------------------------------------------------------------------------------|
B|-----------------------------------------------------------------------------------|
G|---------------------------------------8-------------------------------------------|
D|-5-------------------------------------8-------------------------------------------|
A|-5-------------------------------------6-------------------------------------------|
E|-3---------------------------------------------------------------------------------|
 |
e|-----------------------------------------------------------------------------------|
B|-----------------------------------------------------------------------------------|
G|-12-12-7-7-8-8-------7-7---------------12-12-7-7-8-8-------7-7---------------------|
D|---------------10-10-----8-8-10-10-5-5---------------10-10-----8-8-10-10-5-5-------|
A|-----------------------------------------------------------------------------------|
E|-----------------------------------------------------------------------------------|

e|-----------------------------------------------------------------------------------|
B|-----------------------------------------------------------------------------------|
G|---------------------------------------5-------------3-----------2-----------------|
D|-5-------------------------------------5-------------3-----------2----------2------|
A|-5-------------------------------------3-------------1-----------0----------2------|
E|-3--------------------------------------------------------------------------0------|
 |
e|-----------------------------------------------------------------------------------|
B|-----------------------------------------------------------------------------------|
G|-12-12-7-7-8-8-------7-7---------------12-12-7-7-8-8-------7-7---------------------|
D|---------------10-10-----8-8-10-10-5-5---------------10-10-----8-8-10-10-5-5-------|
A|-----------------------------------------------------------------------------7\----|
E|-----------------------------------------------------------------------------------|

Intro Revisited  7:27
e|------------------------------------------------------------------------|
B|------------------------------------------------------------------------|
G|------------------------------------------------------------------------|
D|-----2---4---5-----5---5---5---5-----2---4---5---5/7---5---4---4h5p4----|
A|---2---2---2---2-3---3---0---0-----2---2---2---2-----0---0---0-------5--|
E|-0-------------------------------0--------------------------------------|

e|------------------------------------------------------------------------|
B|------------------------------------------------------------------------|
G|------------------------------------------------------------------------|
D|-----2---4---5-----5---5---5---5-----2---4---5---5/7--------------------|
A|---2---2---2---2-3---3---0---0-----2---2---2---2------------------------|
E|-0-------------------------------0--------------------------------------|

7:49
e|---------------------------------------------------------------------------|
B|---------------------------------------------------------------------------|
G|---------------------5--------7--------------2----5---------5---7----------|
D|-----------2---------5--------7------2-------2----5---2-----5---7----------|
A|-----------2---------3--------5------2-------0----3---2-----3---5----------|
E|----19\\\--0-------------------------0----------------0--------------------|
 |
e|---------------------------------------------------------------------------|
B|---------------------------------------------------------------------------|
G|---------------------------------------------------------------------------|
D|--7--4/5\4--5----------7--4/5\4-\2-----------------------------------------|
A|---------------------------------------------------------------------------|
E|---------------------------------------------------------------------------|
 |
e|-----------2---------------------2----------------2--------------2---------|
B|-----------3---------------------3----------------3--------------3---------|
G|-----------4---------------------4----------------4--------------4---------|
D|-----------4---------------------4----------------4--------------4---------|
A|---------------------------------------------------------------------------|
E|---------------------------------------------------------------------------|
 Third guitar part strummed from e to D

e|----------------------------------------------------------------------------------|
B|----------------------------------------------------------------------------------|
G|-----4---2----5----------4---5----2--------4---2-----------4--5--7-----4--2-------|
D|-2---4---2----5------2---4---5----2----2---4---2--5-----2--4--5--7--2--4--2-5-----|
A|-2---2---0----3------2---2---3----0----2---2---0--5-----2--2--3--5--2--2--0-5-----|
E|-0-------------------0-----------------0----------3-2-1-0-----------0-------3-2-1-|
 |						        . . 		           . .
e|----------------------------------------------------------------------------------|
B|----------------------------------------------------------------------------------|
G|----------------------------------------------------------------------------------|
D|--------/10-7/9\7-5-----------/10-7/9\7-5-------------------------10-7/9\7—5~~----|
A|----------------------------------------------------------------------------------|
E|----------------------------------------------------------------------------------|
 |
e|-------------2----------------------2------------------2----------------2---------|
B|-------------3----------------------3------------------3----------------3---------|
G|-------------4----------------------4------------------4----------------4---------|
D|-------------4----------------------4------------------4----------------4---------|
A|----------------------------------------------------------------------------------|
E|----------------------------------------------------------------------------------|

e|-----------------------------------------------------------------------------|
B|-----------------------------------------------------------------------------|
G|------4----5---------------------4---2----5-----------4---5-----------4---2--|
D|-2----4----5---5------------2----4---2----5-------2---4---5---5---2---4---2--|
A|-2----2----3---5------------2----2---0----3-------2---2---3---5---2---2---0--|
E|-0-------------3------------0---------------------0-----------3---0----------|
 |
e|-----------------------------------------------------------------------------|
B|-----------------------------------------------------------------------------|
G|-----------------------------------------------------------------------------|
D|--------------/10-7/9\7-5----------------/10-7/9\7-5------10-7/9\7—5~~-------|
A|-----------------------------------------------------------------------------|
E|-----------------------------------------------------------------------------|
 |
e|-----------2--------------------2-----------------2----------------2---------|
B|-----------3--------------------3-----------------3----------------3---------|
G|-----------4--------------------4-----------------4----------------4---------|
D|-----------4--------------------4-----------------4----------------4---------|
A|-----------------------------------------------------------------------------|
E|-----------------------------------------------------------------------------|

Enjoy!

| /  slide up
| \  slide down
| h  hammer-on
| p  pull-off
| ~  vibrato
| +  harmonic
| . or x  Mute note
==============================================================================
comments
We did not receive enough feedback on this tab! Please rate:
1 2 3 4 5
I want to post or [tab]
guest
You may want to rate the tab now too:
select rating
Please do not post tabs as comments. Select "correction" instead!