Oops, an error
Loading. Please wait.

Goodbye Tab

ver1
ver1

Whole song

More versions @911Tabs.com
109,246 views 180 this week
9 commentsread comments
1 2 3 4 5
accurate
x 13
Autoscroll
+/-
esc
set tempo
stop
Contributor
Difficulty
novice
WARNING: You are trying to view
                                    content from Ultimate-Guitar.com
                                    in an unauthorized application,
                                    which is prohibited.

                                    Please use an official Ultimate
                                    Guitar Tabs application for iPhone,
                                    iPad or Android to access legitimate
                                    chords, guitar, bass, and drum tabs
                                    from Ultimate-Guitar.com database.

                                    Type "ultimate guitar tabs" in Apple
                                    App Store's or Android Market's
                                    search to find the application.
Goodbye – Secondhand Serenade

eb|----------0----------------0----------------0---------------0--------------|
Bb|---------------------------------------------------------------------------|
Gb|------9-----9---9------9-----9---9------9-----9---9-----9------9---9-------|
Db|----9---9-----9------9---9-----9------9---9-----9-----9---9------9---------|
Ab|--7----------------7-------------------------------------------------------|
Eb|------------------------------------9---------------9----------------------|

eb|----------0---------------0----------------0----------------0--------------|
Bb|---------------------------------------------------------------------------|
Gb|------9-----9---9-----9-----9---9------9-----9---9------8-----9---9--------|
Db|----9---9-----9-----9---9-----9------9---9-----9------9---9-----9----------|
Ab|--0---------------0----------------7---------------------------------------|
Eb|----------------------------------------------------7----------------------|


Chords: E5 (7th fret), A5 (5th fret), B5 (7th fret) & C#5 (9th fret)

E5	 C#
It's a shame that it had to be this way
                          A5
It's not enough to say I'm sorry
                        E5-B5
It's not enough to say I'm sorry

E5
Maybe I'm to blame
                  C#
Or maybe were the same
                     A5
But either way I can't breathe
               E5     B5
Either way I can't breathe

A5    B5                 C#
All I had to say is goodbye
E5                   A5
Were better off this way
B5                   C#      E5( 6 TH STRING AIR)
Were better off this way

    E5	C#
I'm alive but I'm losing all my drive
                            A5
Cause everything were been through
	E5-B5
And everything about you
               E5
Seemed to be a lie
                    C#
A guiltless twisted lie
	A5
It made me learn to hate you
	E5           B5
Or hate myself for letting it pass by

A5    B5                 C#
All I had to say is goodbye
E5                   A5
Were better off this way
B5                 C#   E5
Were better off this way
A5    B5                 C#
All I had to say is goodbye
E5                   A5
Were better off this way
B5                 C#    E5
Were better off this way

A5	B5               C#
And every, everything isn't only
E5	A5
What it seemed so hold these
B5	C#
Words that you never told me

E5	A5
Its time to say goodbye
B5               C#
Its time to say goodbye
E5	A5
Its time to say goodbye
B5        C#
Goodbye

Bridge (X3): E5, C#, A5, E-B

E5, C#, A, E-B
Bye(X2)

E5             C#
Take my hand away

Spell it out
A5
Tell me I was wrong
E5            B5
Tell me I was wrong

E5             C#
Take my hand away

Spell it out
A5
Tell me I was wrong
E5            B5
Tell me I was wrong

E5             C#
Take my hand away

Spell it out
A5
Tell me I was wrong
E5            B5
Tell me I was wrong

E5             C#
Take my hand away

Spell it out
A5
Tell me I was wrong
E5            B5
Tell me I was wrong

E5, C#, A, E-B
HOOOOooooOOOOoooo
Repeat as long as you want
9 comments total. Showing first comments.
0 reply
xheartbreakerx wrote on March 30 2008, 03:23 pm

eb|----------0----------------0----------------0---------------0
Bb|------------------------------------------------------------------
Gb|------9-----9---9------9-----9---9------9-----9---9-----9------9
Db|----9---9-----9------9---9-----9------9---9-----9-----9---9------
Ab|--7----------------7----------------------------------------------
Eb|------------------------------------9---------------9------------


I just have a question about this part. That 0 at the top... does it even need to be played? Because when I listen to the song, I can't hear where it fits. Help?

0 reply
Mi-Kun wrote on March 30 2008, 03:49 pm

it's played at the song, but, as the song it's supossed to be played by fingerpicking, he uses his ring finger, and it sounds very softly, but if you listen to the song carefully... the eb string gives something special to the song, not like "let it roll", it's something different... but, as I said before, it sounds clearly at the song.

+1 reply
drummer4576 wrote on April 2 2008, 04:00 pm

the intro is way off..listen to the song.

Gb isnt played until the last chord

and Bb is hit open every chord

eb|----------0----------------0----------------0----------
Bb|------0---------0------0---------0------0---------0--
Gb|------------------------------------------------------
Db|----9---9---9-9------9---9---9-9------9---9---9-9----
Ab|--7----------------7--------------------------------
Eb|------------------------------------9---------------


and so on. sounds muchh better

I want to post or [tab]
guest
You may want to rate the tab now too:
select rating
Please do not post tabs as comments. Select "correction" instead!