Oops, an error
Loading. Please wait.

Careless Whisper Bass Tab

20,272 views 30 this week
1 commentread comment
1 2 3 4 5
not so good
x 3
Autoscroll
+/-
esc
set tempo
stop
Contributor
WARNING: You are trying to view
                                    content from Ultimate-Guitar.com
                                    in an unauthorized application,
                                    which is prohibited.

                                    Please use an official Ultimate
                                    Guitar Tabs application for iPhone,
                                    iPad or Android to access legitimate
                                    chords, guitar, bass, and drum tabs
                                    from Ultimate-Guitar.com database.

                                    Type "ultimate guitar tabs" in Apple
                                    App Store's or Android Market's
                                    search to find the application.

OK this is my first tab and I'm at work without a bass or the song to listen to, but
listened to the song a million times with headphones and studied them playing it live.

The reason why I'm posting is that there NO bass tabs for this song and all of the
tabs are WRONG.  First off, the song is in the key of D, however they are all tuned to
C.  The tell tale sign that they are in C is durring the bridge part if you listen 
you'll hear the LOW C to D Durring the "Tonight the music seems so loud"

Note: Watching them play it live it looks like the bass player plays some chords instead
just the root notes or may hit the 5th or octave but I'm not sure if he's just goofing
live or if it's in the studio version, you'll have to check.  Also, play along to get 
timing right.

Careless Whisper by Seether
Tuning: C,G,C,F

Verse:
 I feel so unsure..,
|------------------------------------------------------------------|
|------------------------------------------------------------------|
|------------------------------------------------------------------|
|-2-----------7------------9--10-----9-----------------------------|

|------------------------------------------------------------------|
|------------------------------------------------------------------|
|------------------------------------------------------------------|
|-2-----------7------------9--10-----9-----------------------------|


Chorus:
 I'm Never gonna dance again..,
|------------------------------------------------------------------|
|------------------------------------------------------------------|
|------------------------------------------------------------------|
|-2-----------7------------9--10-----9---------5-------------------|

|------------------------------------------------------------------|
|------------------------------------------------------------------|
|------------------------------------------------------------------|
|-2-----------7------------9--10-----9---------5-------------------|


Bridge:
  Tonight the music seems so loud..,
|------------------------------------------------------------------|
|------------------------------------------------------------------|
|------------------------------------------------------------------|
|-2-0-2-2-2-2---2-0-2-2-2-2--5-7-7-7-7-7--5-7-7-7-7----------------|

|------------------------------------------------------------------|
|------------------------------------------------------------------|
|------------------------------------------------------------------|
|9-10-10-10-10-10-----9-10-10-10-10-10--9-9-9-9-9--9-9-9-9-9-----5-|
comments
We did not receive enough feedback on this tab! Please rate:
1 2 3 4 5
1 comment total.
0 reply
GreenAiden555 wrote on October 7 2009, 03:56 pm

If the song is in the key of D, which makes C and F sharp, why does Shaun/Troy play a Bb5 chord during the Chorus and Bridge?

I want to post or [tab]
guest
You may want to rate the tab now too:
select rating
Please do not post tabs as comments. Select "correction" instead!