Oops, an error
Loading. Please wait.

Cigarettes Tab

ver2
ver2

Whole song

Interactive

More versions @911Tabs.com
1,371 views 12 this week
1 commentread comment
1 2 3 4 5
excellent!
x 4
Autoscroll
+/-
esc
set tempo
stop
Contributor
Hey! There's an official Ultimate Guitar app which is ideal
for learning songs when you're away from computer. Get the app
WARNING: You are trying to view
                                    content from Ultimate-Guitar.com
                                    in an unauthorized application,
                                    which is prohibited.

                                    Please use an official Ultimate
                                    Guitar Tabs application for iPhone,
                                    iPad or Android to access legitimate
                                    chords, guitar, bass, and drum tabs
                                    from Ultimate-Guitar.com database.

                                    Type "ultimate guitar tabs" in Apple
                                    App Store's or Android Market's
                                    search to find the application.
------------------------------------------------------------------------------
                             Cigarettes - Seether
------------------------------------------------------------------------------
Tabbed by:Philip Wesley Tapscott
Email:tapscottphilip@yahoo.com

Tuning:Down 1/2 step (Eb, Ab, Db, Gb, Bb, eb)

This has to be the most underrated Seether song out there, and I really wanted to play
it. Unfortunately, I was not very satisfied with the other tab on here, so I decided to
learn this song by ear. This is my first time learning a song by ear, and I figured this 
would be kind of easy, and for the most part, it wasn't that bad. By the way, I've heard
some people say this song is in Drop Db (Db, Ab, Db, Gb, Bb, eb), but it could easily be 
played both ways. If you have any problems with this tab or if you find a mistake 
somewhere in it, please leave a comment or email me.



Intro:

Clean
eb|--------------------| x4
Bb|--------------------|
Gb|---3h4p3-------3h4--|
Db|-5---------3-3------|
Ab|-5---------3-3------|
Eb|-3-------0-1-1------|
NOTE: I play the open Eb more like a dead note, but you can do whatever sounds best to you

Distorted
eb|--------------------| x4
Bb|--------------------|
Gb|---3h4p3-------3h4--|
Db|-5---------3-3------|
Ab|-5---------3-3------|
Eb|-3-------0-1-1------|


           (Lead)
eb|----------------------------------5*----------------|
Bb|----------------------------------5*---5*--5*-------|
Gb|---------------------------------------5*-----------|
Db|--/9~--7~-------------------------------------------|
Ab|----------10~--7-9br-9p7----------------------------|
Eb|------------------------10------7-------------------|
  |
  |    (Rhythm)
eb|--------------------|
Bb|--------------------|
Gb|---3h4p3-------3h4--|x4
Db|-5---------3-3------|
Ab|-5---------3-3------|
Eb|-3-------0-1-1------|

NOTE: I do realize that this is probably not at all how they play, and probably don't
include harmonics in this song, but this is how I like to play it.

Verse:

Clean
eb|-----------------------| x8
Bb|-----------------------|
Gb|---3h4p3--------3h4----|
Db|-5----------3-3--------|
Ab|-5----------3-3--------|
Eb|-3--------0-1-1--------|

Chorus:

Distorted
eb|------------------------------------| x2
Bb|------------------------------------|
Gb|------------------------------------|
Db|-7-7-7----5-5----7-7-7----10-10-----|
Ab|-7-7-7----5-5----7-7-7----10-10-----|
Eb|-5-5-5--0-3-3----5-5-5--0-8--8------|
NOTE: Just like before, I play the open note more like a dead note

Post Chorus:

Distorted
eb|--------------------| x4
Bb|--------------------|
Gb|---3h4p3-------3h4--|
Db|-5---------3-3------|
Ab|-5---------3-3------|
Eb|-3-------0-1-1------|

Verse:

Clean
eb|-----------------------| x8
Bb|-----------------------|
Gb|---3h4p3--------3h4----|
Db|-5----------3-3--------|
Ab|-5----------3-3--------|
Eb|-3--------0-1-1--------|

Chorus:

Distorted
eb|------------------------------------| x2
Bb|------------------------------------|
Gb|------------------------------------|
Db|-7-7-7----5-5----7-7-7----10-10-----|
Ab|-7-7-7----5-5----7-7-7----10-10-----|
Eb|-5-5-5--0-3-3----5-5-5--0-8--8------|

Post Chorus:

Distorted
eb|--------------------| x4
Bb|--------------------|
Gb|---3h4p3-------3h4--|
Db|-5---------3-3------|
Ab|-5---------3-3------|
Eb|-3-------0-1-1------|

Solo:
             (Lead)
eb|-------------------------------------5*------------|
Bb|-------------------------------------5*---5*--5*---|
Gb|------------------------------------------5*-------|
Db|--/9~--7~------------------------------------------|
Ab|----------10~--7-9br--9p7--------------------------|
Eb|-------------------------10------7-----------------|
  |
  |    (Rhythm)
eb|--------------------|
Bb|--------------------|
Gb|---3h4p3-------3h4--|x4
Db|-5---------3-3------|
Ab|-5---------3-3------|
Eb|-3-------0-1-1------|

                (Lead)
eb|-------------------------------------5*---5*--5*---|
Bb|-------------------------------------5*------------|
Gb|---------------------------------------------------|
Db|--/9~--7~------------------------------------------|
Ab|----------10~--7-9br--9p7--------------------------|
Eb|-------------------------10------7-----------------|
  |
  |        (Rhythm)
eb|--------------------|
Bb|--------------------|
Gb|---3h4p3-------3h4--|x4
Db|-5---------3-3------|
Ab|-5---------3-3------|
Eb|-3-------0-1-1------|

               (Lead)
eb|-------------------------------------------------------------------------|
Bb|-------------------------------------------------------------------------|
Gb|777/999/101010/121212\777/999/101010/121212\-----------------------------| x2
Db|-------------------------------------------------------------------------|
Ab|-------------------------------------------------------------------------|
Eb|-------------------------------------------------------------------------|
  |
  |          (Rhythm)
eb|------------------------------------| x2
Bb|------------------------------------|
Gb|------------------------------------|
Db|-7-7-7----5-5----7-7-7----10-10-----|
Ab|-7-7-7----5-5----7-7-7----10-10-----|
Eb|-5-5-5--0-3-3----5-5-5--0-8--8------|

             (Lead)
eb|-------------------------------------------------------------------------|
Bb|-------------------------------------------------------------------------|
Gb|121212\999/101010\777/121212\999/101010\777/-----------------------------| x2
Db|-------------------------------------------------------------------------|
Ab|-------------------------------------------------------------------------|
Eb|-------------------------------------------------------------------------|
  |
  |          (Rhythm)
eb|--------------------|
Bb|--------------------|
Gb|---3h4p3-------3h4--|x4
Db|-5---------3-3------|
Ab|-5---------3-3------|
Eb|-3-------0-1-1------|

              (Lead)
eb|-----------------------------------------|
Bb|-----------------------------------------|
Gb|7~---7-----------------------------------|
Db|------10-9~-----9bp7~--------------------|
Ab|------------9br--------------------------|
Eb|-----------------------------------------|
  |
  |    (Rhythm)
eb|----------------|
Bb|----------------|
Gb|----------------|x4
Db|-5---3----------|
Ab|-5---3----------|
Eb|-3---1----------|
NOTE: Lightly strum these to get a good effect so it doesn't sound overly distorted
ANOTHER NOTE: If you're playing this in a band with 2 guitarists, the rhythm guitar can
continue playing this under the bridge.

Bridge:

eb|----------------| x8
Bb|----------------|
Gb|----------------|
Db|-----5-------3--|
Ab|---5--5----3--3-|
Eb|-3-------1------|

Chorus:

eb|------------------------------------| x4
Bb|------------------------------------|
Gb|------------------------------------|
Db|-5-5-5----3-3----5-5-5----8-8-------|
Ab|-5-5-5----3-3----5-5-5----8-8-------|
Eb|-3-3-3--0-1-1----3-3-3--0-6-6-------|

Outro:

eb|--------------------| x8
Bb|--------------------|
Gb|---3h4p3-------3h4--|
Db|-5---------3-3------|
Ab|-5---------3-3------|
Eb|-3-------0-1-1------|

End on this chord:
eb|---|
Bb|---|
Gb|---|
Db|-5-|
Ab|-5-|
Eb|-3-|



Just a little side note: I noticed that on the fourth time this riff repeats in every
instance, a different hammer-on is played at the end instead of the 3h4. I'm not quite
sure what it is yet, I just know that it does sound lower, and I think it might be 
something like this:
eb|--------------------|
Bb|--------------------|
Gb|---3h4p3-------3p0--|
Db|-5---------3-3------|
Ab|-5---------3-3------|
Eb|-3-------0-1-1------|

************************************

| /   slide up
| \   slide down
| h   hammer-on
| p   pull-off
| ~   vibrato
| *   harmonic
| x   Mute note
| b   Bend
| pb  Pre-bend
| br  Bend release
| pbr Pre-bend release
| brb Bend release bend

************************************
comments
print report bad tab
1 comment total.
0 reply
LifelessDEAD92 wrote on June 14 2014, 10:48 pm

Am i the only one that thinks the intro does not sound correct?

I want to post or [tab]
guest
You may want to rate the tab now too:
select rating
Please do not post tabs as comments. Select "correction" instead!