Oops, an error
Loading. Please wait.

Country Song Tab

ver3
ver3

Intro

Interactive

More versions @911Tabs.com
3,560 views 1 this week
no commentswrite comment
1 2 3 4 5
worth learning
x 2
Autoscroll
+/-
esc
set tempo
stop
Contributor
Difficulty
Tuning
intermediate
D A D G B E
Hey! There's an official Ultimate Guitar app which is ideal
for learning songs when you're away from computer. Get the app
WARNING: You are trying to view
                                    content from Ultimate-Guitar.com
                                    in an unauthorized application,
                                    which is prohibited.

                                    Please use an official Ultimate
                                    Guitar Tabs application for iPhone,
                                    iPad or Android to access legitimate
                                    chords, guitar, bass, and drum tabs
                                    from Ultimate-Guitar.com database.

                                    Type "ultimate guitar tabs" in Apple
                                    App Store's or Android Market's
                                    search to find the application.
Seether
Country Song

Drop D Tunning

Verse 1

Guitar 1 (Clean)
e :---------------------------------------:
B :--\6^p3-----3-6-3--\6^p3---1\3---------:
G :--------2-5--------------2-----5-0h2---:
D :-------------------------------------3-:
A :---------------------------------------:
D :---------------------------------------:

Guitar 1
e :---------------------------------------------:
B :--\6^p3-----3-6-3--\6^p3---1\3---------------:
G :--------2-5--------------2-----5-------------:
D :---------------------------------5\7/3\5h6h7-:
A :---------------------------------------------:
D :---------------------------------------------:

Guitar 1
e :---------------------------------------:
B :--\6^p3-----3-6-3--\6^p3---1\3---------:
G :--------2-5--------------2-----5-0h2---:
D :-------------------------------------3-:
A :---------------------------------------:
D :---------------------------------------:

Guitar 1
e :---------------------------1\3/1-------------:
B :--\6^p3-----3-6-3--\6^p3---------------------:
G :--------2-5--------------2-------------------:
D :---------------------------------5\7/3\5h6h7-:
A :---------------------------------------------:
D :---------------------------------------------:

Guitar 1
e :---------------------------------------:
B :--\6^p3-----3-6-3--\6^p3---1\3---------:
G :--------2-5--------------2-----5-0h2---:
D :-------------------------------------3-:
A :---------------------------------------:
D :---------------------------------------:

Guitar 2 (Light Distortion/Palm Muted)
e :---------------------------------------:
B :---------------------------------------:
G :---------------------------------------:
D :--3--3--3--3--3--3--3--3--3--5-5-3-5-3-:
A :--3--3--3--3--3--3--3--3--3--5-5-3-5-3-:
D :--3--3--3--3--3--3--3--3--3--5-5-3-5-3-:

Guitar 1
e :---------------------------------------------:
B :--\6^p3-----3-6-3--\6^p3---1\3---------------:
G :--------2-5--------------2-----5-------------:
D :---------------------------------5\7/3\5h6h7-:
A :---------------------------------------------:
D :---------------------------------------------:

Guitar 2
e :---------------------------------------------:
B :---------------------------------------------:
G :---------------------------------------------:
D :--3--3--3--3--3--3--3--3--3--3--3--5-5-3-5-3-:
A :--3--3--3--3--3--3--3--3--3--3--3--5-5-3-5-3-:
D :--3--3--3--3--3--3--3--3--3--3--3--5-5-3-5-3-:

Guitar1
e :---------------------------------------:
B :--\6^p3-----3-6-3--\6^p3---1\3---------:
G :--------2-5--------------2-----5-0h2---:
D :-------------------------------------3-:
A :---------------------------------------:
D :---------------------------------------:

Guitar 2
e :---------------------------------------:
B :---------------------------------------:
G :---------------------------------------:
D :--3--3--3--3--3--3--3--3--3--5-5-3-5-3-:
A :--3--3--3--3--3--3--3--3--3--5-5-3-5-3-:
D :--3--3--3--3--3--3--3--3--3--5-5-3-5-3-:

Guitar 1
e :---------------------------1\3/1-------------:
B :--\6^p3-----3-6-3--\6^p3---------------------:
G :--------2-5--------------2-------------------:
D :---------------------------------5\7/3\5h6h7-:
A :---------------------------------------------:
D :---------------------------------------------:

Guitar 2
e :---------------------------------------------:
B :---------------------------------------------:
G :---------------------------------------------:
D :--3--3--3--3--3--3--3--3--3--3--3--5-5-3-5-3-:
A :--3--3--3--3--3--3--3--3--3--3--3--5-5-3-5-3-:
D :--3--3--3--3--3--3--3--3--3--3--3--5-5-3-5-3-:

=================================================

Transition to Chorus

Guitar 1
e :---------------------------------------:
B :--\6^p3-----3-6-3---\6^p3--------------:
G :--------2-5---------------2--3\5-2h0---:
D :-------------------------------------3-:
A :---------------------------------------:
D :---------------------------------------:

Guitar 2
e :---------------------------------------:
B :---------------------------------------:
G :---------------------------------------:
D :--3--3--3--3--3--3--3--3--3--5-5-3-5-3-:
A :--3--3--3--3--3--3--3--3--3--5-5-3-5-3-:
D :--3--3--3--3--3--3--3--3--3--5-5-3-5-3-:

Guitar 1
e :--------------------------------(Distortion)-:
B :---\6^p3------3-6-3---8-8-6-8-8--------------:
G :---------2-5----------7-7-5-7-7--------------:
D :----------------------5-5-3-5-5---5h6p5p3p0--:
A :----------------------5-5-3-5-5--------------:
D :----------------------5-5-3-5-5--------------:

Guitar 2
e :---------------------------------------------:
B :---------------------------------------------:
G :---------------------------------------------:
D :--3--3--3--3--3--3--3--5-5-3-5-3-------------:
A :--3--3--3--3--3--3--3--5-5-3-5-3-------------:
D :--3--3--3--3--3--3--3--5-5-3-5-3-------------:

=================================================

Chorus 1

Guitars 1 & 2 (Heavy Distortion)
e :-----------------------------------:
B :--3-3-xx-6-6-xx-8-8-xx-13-12-10-3--:
G :--2-2-xx-5-5-xx-7-7-xx-12-11- 9-2--:
D :--0-0-xx-3-3-xx-5-5-xx-10- 9- 7-0--:
A :--0-0-xx-3-3-xx-5-5-xx-10- 9- 7-0--:
D :--0-0-xx-3-3-xx-5-5-xx-10- 9- 7-0--:

e :-----------------------------------:
B :--3-3-xx-6-6-xx-8-8-x-8------------:
G :--2-2-xx-5-5-xx-7-7-x-7------------:
D :--0-0-xx-3-3-xx-5-5-x-5--5h6p5p3p0-:
A :--0-0-xx-3-3-xx-5-5-x-5------------:
D :--0-0-xx-3-3-xx-5-5-x-5------------:

e :-----------------------------------:
B :--3-3-xx-6-6-xx-8-8-xx-13-12-10-3--:
G :--2-2-xx-5-5-xx-7-7-xx-12-11- 9-2--:
D :--0-0-xx-3-3-xx-5-5-xx-10- 9- 7-0--:
A :--0-0-xx-3-3-xx-5-5-xx-10- 9- 7-0--:
D :--0-0-xx-3-3-xx-5-5-xx-10- 9- 7-0--:

e :-----------------------------------:
B :--3-3-xx-6-6-xx-8-8-x-8------------:
G :--2-2-xx-5-5-xx-7-7-x-7------------:
D :--0-0-xx-3-3-xx-5-5-x-5--5h6p5p3p0-:
A :--0-0-xx-3-3-xx-5-5-x-5------------:
D :--0-0-xx-3-3-xx-5-5-x-5------------:

================================================

Transition to Verse2

Guitar 1 (Clean)
e :---------------------------------------:
B :--\6^p3-----3-6-3---\6^p3--------------:
G :--------2-5---------------2--3\5-2h0---:
D :-------------------------------------3-:
A :---------------------------------------:
D :---------------------------------------:

================================================

Verse 2

Guitar 1
e :---------------------------------------:
B :--\6^p3-----3-6-3--\6^p3---1\3---------:
G :--------2-5--------------2-----5-0h2---:
D :-------------------------------------3-:
A :---------------------------------------:
D :---------------------------------------:

Guitar 1
e :---------------------------------------------:
B :--\6^p3-----3-6-3--\6^p3---1\3---------------:
G :--------2-5--------------2-----5-------------:
D :---------------------------------5\7/3\5h6h7-:
A :---------------------------------------------:
D :---------------------------------------------:

Guitar 1
e :---------------------------------------:
B :--\6^p3-----3-6-3--\6^p3---1\3---------:
G :--------2-5--------------2-----5-0h2---:
D :-------------------------------------3-:
A :---------------------------------------:
D :---------------------------------------:

Guitar 1
e :---------------------------1\3/1-------------:
B :--\6^p3-----3-6-3--\6^p3---------------------:
G :--------2-5--------------2-------------------:
D :---------------------------------5\7/3\5h6h7-:
A :---------------------------------------------:
D :---------------------------------------------:

Guitar 1
e :---------------------------------------:
B :--\6^p3-----3-6-3--\6^p3---1\3---------:
G :--------2-5--------------2-----5-0h2---:
D :-------------------------------------3-:
A :---------------------------------------:
D :---------------------------------------:

Guitar 2 (Light Distortion/Palm Muted)
e :---------------------------------------:
B :---------------------------------------:
G :---------------------------------------:
D :--3--3--3--3--3--3--3--3--3--5-5-3-5-3-:
A :--3--3--3--3--3--3--3--3--3--5-5-3-5-3-:
D :--3--3--3--3--3--3--3--3--3--5-5-3-5-3-:

Guitar 1
e :---------------------------------------------:
B :--\6^p3-----3-6-3--\6^p3---1\3---------------:
G :--------2-5--------------2-----5-------------:
D :---------------------------------5\7/3\5h6h7-:
A :---------------------------------------------:
D :---------------------------------------------:

Guitar 2
e :---------------------------------------------:
B :---------------------------------------------:
G :---------------------------------------------:
D :--3--3--3--3--3--3--3--3--3--3--3--5-5-3-5-3-:
A :--3--3--3--3--3--3--3--3--3--3--3--5-5-3-5-3-:
D :--3--3--3--3--3--3--3--3--3--3--3--5-5-3-5-3-:

Guitar1
e :---------------------------------------:
B :--\6^p3-----3-6-3--\6^p3---1\3---------:
G :--------2-5--------------2-----5-0h2---:
D :-------------------------------------3-:
A :---------------------------------------:
D :---------------------------------------:

Guitar 2
e :---------------------------------------:
B :---------------------------------------:
G :---------------------------------------:
D :--3--3--3--3--3--3--3--3--3--5-5-3-5-3-:
A :--3--3--3--3--3--3--3--3--3--5-5-3-5-3-:
D :--3--3--3--3--3--3--3--3--3--5-5-3-5-3-:

Guitar 1
e :---------------------------1\3/1-------------:
B :--\6^p3-----3-6-3--\6^p3---------------------:
G :--------2-5--------------2-------------------:
D :---------------------------------5\7/3\5h6h7-:
A :---------------------------------------------:
D :---------------------------------------------:

Guitar 2
e :---------------------------------------------:
B :---------------------------------------------:
G :---------------------------------------------:
D :--3--3--3--3--3--3--3--3--3--3--3--5-5-3-5-3-:
A :--3--3--3--3--3--3--3--3--3--3--3--5-5-3-5-3-:
D :--3--3--3--3--3--3--3--3--3--3--3--5-5-3-5-3-:

=================================================

Transition to Chorus 2

Guitar 1
e :---------------------------------------:
B :--\6^p3-----3-6-3---\6^p3--------------:
G :--------2-5---------------2--3\5-2h0---:
D :-------------------------------------3-:
A :---------------------------------------:
D :---------------------------------------:

Guitar 2
e :---------------------------------------:
B :---------------------------------------:
G :---------------------------------------:
D :--3--3--3--3--3--3--3--3--3--5-5-3-5-3-:
A :--3--3--3--3--3--3--3--3--3--5-5-3-5-3-:
D :--3--3--3--3--3--3--3--3--3--5-5-3-5-3-:

Guitar 1
e :--------------------------------(Distortion)-:
B :---\6^p3------3-6-3---8-8-6-8-8--------------:
G :---------2-5----------7-7-5-7-7--------------:
D :----------------------5-5-3-5-5---5h6p5p3p0--:
A :----------------------5-5-3-5-5--------------:
D :----------------------5-5-3-5-5--------------:

Guitar 2
e :---------------------------------------------:
B :---------------------------------------------:
G :---------------------------------------------:
D :--3--3--3--3--3--3--3--5-5-3-5-3-------------:
A :--3--3--3--3--3--3--3--5-5-3-5-3-------------:
D :--3--3--3--3--3--3--3--5-5-3-5-3-------------:

=================================================

Chorus 2

Guitars 1 & 2 (Heavy Distortion)
e :-----------------------------------:
B :--3-3-xx-6-6-xx-8-8-xx-13-12-10-3--:
G :--2-2-xx-5-5-xx-7-7-xx-12-11- 9-2--:
D :--0-0-xx-3-3-xx-5-5-xx-10- 9- 7-0--:
A :--0-0-xx-3-3-xx-5-5-xx-10- 9- 7-0--:
D :--0-0-xx-3-3-xx-5-5-xx-10- 9- 7-0--:

e :-----------------------------------:
B :--3-3-xx-6-6-xx-8-8-x-8------------:
G :--2-2-xx-5-5-xx-7-7-x-7------------:
D :--0-0-xx-3-3-xx-5-5-x-5--5h6p5p3p0-:
A :--0-0-xx-3-3-xx-5-5-x-5------------:
D :--0-0-xx-3-3-xx-5-5-x-5------------:

e :-----------------------------------:
B :--3-3-xx-6-6-xx-8-8-xx-13-12-10-3--:
G :--2-2-xx-5-5-xx-7-7-xx-12-11- 9-2--:
D :--0-0-xx-3-3-xx-5-5-xx-10- 9- 7-0--:
A :--0-0-xx-3-3-xx-5-5-xx-10- 9- 7-0--:
D :--0-0-xx-3-3-xx-5-5-xx-10- 9- 7-0--:

e :-----------------------------------:
B :--3-3-xx-6-6-xx-8-8-x-8------------:
G :--2-2-xx-5-5-xx-7-7-x-7------------:
D :--0-0-xx-3-3-xx-5-5-x-5--5h6p5p3p0-:
A :--0-0-xx-3-3-xx-5-5-x-5------------:
D :--0-0-xx-3-3-xx-5-5-x-5------------:

==============================================

Solo

GUitar 1 (Heavy distortion)
e :--------------------------:
B :--------------------------:
G :-----7^----7^--5\7-777777-:
D :-3h5---3h5---3------------:
A :--------------------------:
D :--------------------------:

Guitar 2 (Heavy Distortion)

e :--------------------------:
B :--------------------------:
G :--0--0------3-3-------3---:
A :--0--0--3h5------3h5----5-:
D :--0--0--------------------:

Guitar 1
e :----------------------------------:
B :------15^----15^-----151515151515-:
G :-12h14--12h14--12h14-141414141414-:
D :----------------------------------:
A :----------------------------------:
D :----------------------------------:

Guitar 2
e :----------------------------------:
B :----------------------------------:
G :----------------------------------:
D :--0--0--------3-3-----3-5h6p5p3p0-:
A :--0--0---3h5------3h5-------------:
D :--0--0----------------------------:

Guittar 1
e :-10^-----------------------10^----15^----:
B :-13^-15p13p10-10^-15p13p10-13^-15h18^-18-:
G :--------------13^------------------------:
D :-----------------------------------------:
A :-----------------------------------------:
D :-----------------------------------------:

GUitar 2
e :-----------------------------------------:
B :-----------------------------------------:
G :-----------------------------------------:
D :---0-----0------------3--3-------3-------:
A :---0-----0-----3-h-5--------3h5-----5----:
D :---0-----0-------------------------------:

Guitar 1
e :--10^-10^---------16^--:
B :--13^-13^-----13^------:
G :----------12^----------:
D :-----------------------:
A :-----------------------:
D :-----------------------:

Guitar 2
e :-----------------------:
B :-- 8-- 8-- 6-- 8-- 8---:
G :-- 7-- 7-- 5-- 7-- 5---:
D :-- 5-- 5-- 3-- 5-- 3---:
A :-- 5-- 5-- 3-- 5-- 3---:
D :-- 5-- 5-- 3-- 5-- 3---:

=============================================

Bridge

Guitars 1 & 2 (Heavy Distortion)
e :--------------------------:
B :--------------------------:
G :--0--0------3-3-------3---:
A :--0--0--3h5------3h5----5-:
D :--0--0--------------------:

e :--------------------------:
B :--------------------------:
G :--------------------------:
D :-0-0----3-3---3-5h6p5p3p0-:
A :-0-0-3h5---3h5------------:
D :-0-0----------------------:

e :--------------------------:
B :--------------------------:
G :--0--0------3-3-------3---:
A :--0--0--3h5------3h5----5-:
D :--0--0--------------------:

e :--------------------------:
B :-8--8--6--8--8------------:
G :-7--7--5--7--5------------:
D :-5--5--3--5--3-(Let Ring)-:
A :-5--5--3--5--3------------:
D :-5--5--3--5--3------------:

Guitars 1 & 2 (Clean)
e :------------------------------------------:
B :-8888-11-13131313-11-13131313-11-13-15- 8-:
G :-7777-10-12121212-10-12121212-10-12-14- 7-:
D :-xxxx- x- x x x x- x- x x x x- x- x- x- x-:
A :-5555- 8-10101010- 8-10101010- 8-10-12- 5-:
D :------------------------------------------:

e :------------------------------------------:
B :-8888-11-13131313-11-13131313-11-13-15-20-:
G :-7777-10-12121212-10-12121212-10-12-14-19-:
D :-xxxx- x- x x x x- x- x x x x- x- x- x- x-:
A :-5555- 8-10101010- 8-10101010- 8-10-12-17-:
D :------------------------------------------:

e :------------------------------------------:
B :-8888-11-13131313-11-13131313-11-13-15- 8-:
G :-7777-10-12121212-10-12121212-10-12-14- 7-:
D :-xxxx- x- x x x x- x- x x x x- x- x- x- x-:
A :-5555- 8-10101010- 8-10101010- 8-10-12- 5-:
D :------------------------------------------:

e :------------------------------------------:
B :-8888-11-13131313-11-13131313-11-13-15-20-:
G :-7777-10-12121212-10-12121212-10-12-14-19-:
D :-xxxx- x- x x x x- x- x x x x- x- x- x- x-:
A :-5555- 8-10101010- 8-10101010- 8-10-12-17-:
D :------------------------------------------:

==============================================

Chorus 3

Guitars 1 & 2 (Heavy Distortion)
e :-----------------------------------:
B :--3-3-xx-6-6-xx-8-8-xx-13-12-10-3--:
G :--2-2-xx-5-5-xx-7-7-xx-12-11- 9-2--:
D :--0-0-xx-3-3-xx-5-5-xx-10- 9- 7-0--:
A :--0-0-xx-3-3-xx-5-5-xx-10- 9- 7-0--:
D :--0-0-xx-3-3-xx-5-5-xx-10- 9- 7-0--:

e :-----------------------------------:
B :--3-3-xx-6-6-xx-8-8-x-8------------:
G :--2-2-xx-5-5-xx-7-7-x-7------------:
D :--0-0-xx-3-3-xx-5-5-x-5--5h6p5p3p0-:
A :--0-0-xx-3-3-xx-5-5-x-5------------:
D :--0-0-xx-3-3-xx-5-5-x-5------------:

e :-----------------------------------:
B :--3-3-xx-6-6-xx-8-8-xx-13-12-10-3--:
G :--2-2-xx-5-5-xx-7-7-xx-12-11- 9-2--:
D :--0-0-xx-3-3-xx-5-5-xx-10- 9- 7-0--:
A :--0-0-xx-3-3-xx-5-5-xx-10- 9- 7-0--:
D :--0-0-xx-3-3-xx-5-5-xx-10- 9- 7-0--:

e :-----------------------------------:
B :--3-3-xx-6-6-xx-8-8-x-8------------:
G :--2-2-xx-5-5-xx-7-7-x-7------------:
D :--0-0-xx-3-3-xx-5-5-x-5--5h6p5p3p0-:
A :--0-0-xx-3-3-xx-5-5-x-5------------:
D :--0-0-xx-3-3-xx-5-5-x-5------------:

============================================

Outro

Guitars 1 & 2 (Heavy Distortion)
e :--------------------------:
B :--------------------------:
G :--0--0------3-3-------3---:
A :--0--0--3h5------3h5----5-:
D :--0--0--------------------:

e :--------------------------:
B :--------------------------:
G :--------------------------:
D :-0-0----3-3---3-5h6p5p3p0-:
A :-0-0-3h5---3h5------------:
D :-0-0----------------------:

e :--------------------------:
B :--------------------------:
G :--0--0------3-3-------3---:
A :--0--0--3h5------3h5----5-:
D :--0--0--------------------:

e :--------------------------:
B :-8--8--6--8--8------------:
G :-7--7--5--7--5------------:
D :-5--5--3--5--3-(Let Ring)-:
A :-5--5--3--5--3------------:
D :-5--5--3--5--3------------:

e :--------------------------:
B :--------------------------:
G :--0--0------3-3-------3---:
A :--0--0--3h5------3h5----5-:
D :--0--0--------------------:

e :--------------------------:
B :--------------------------:
G :--------------------------:
D :-0-0----3-3---3-5h6p5p3p0-:
A :-0-0-3h5---3h5------------:
D :-0-0----------------------:

e :--------------------------:
B :--------------------------:
G :--0--0------3-3-------3---:
A :--0--0--3h5------3h5----5-:
D :--0--0--------------------:

e :--------------------------:
B :-8--8--6--8--8------------:
G :-7--7--5--7--5------------:
D :-5--5--3--5--3-(Let Ring)-:
A :-5--5--3--5--3------------:
D :-5--5--3--5--3------------:

Tabbed by Caine1379

If you can figure out the second solo email me at
Carper137901@live.com. I would like to learn it.
comments
We did not receive enough feedback on this tab! Please rate:
print report bad tab
1 2 3 4 5
I want to post or [tab]
guest
You may want to rate the tab now too:
select rating
Please do not post tabs as comments. Select "correction" instead!