Oops, an error
Loading. Please wait.

Disclaimer Tab

18,710 views 15 this week
22 commentsread comments
1 2 3 4 5
accurate
x 20
add to favorites launch autoscroll
font size
0
reset
Autoscroll
+/-
esc
set tempo
stop
WARNING: You are trying to view
                                    content from Ultimate-Guitar.com
                                    in an unauthorized application,
                                    which is prohibited.

                                    Please use an official Ultimate
                                    Guitar Tabs application for iPhone,
                                    iPad or Android to access legitimate
                                    chords, guitar, bass, and drum tabs
                                    from Ultimate-Guitar.com database.

                                    Type "ultimate guitar tabs" in Apple
                                    App Store's or Android Market's
                                    search to find the application.
Artist:	Seether
Song:		Gasoline
Tuning:	Standard tuning dropped half a step to Eb
Tabbed by:  Jeremy  Kowalczyk

Intro: 	Guitars 1 and 2 play together 3 times
EbI------------------------------------------------------------------12-12-12--
Bb|------------------------------------------------------------------12-12-12--
Gb|------------------------------------------------------------------12-12-12--
Db|----2-2-x-x--x--x--x--x-x-x-----------2-2-x-x--x--x--x----------------------
Ab|----2-2-x-x--x--x--x--x-x-x-----------2-2-x-x--x--x--x----------------------
Eb|----0-0-x-x--x--x--x--x-x-x-----------0-0-x-x--x--x--x----------------------


Verse Riff: Guitar 1
					3x				Last time
Eb|----------------------------------------------------------------------------
Bb|----------------------------------------------------------------------------
Gb|-----------9-9--7-7/10--10------------------------------9-9--7-7/12-12-12---
Db|----2-2-x----------------------------------------2-2-x----------------------
Ab|----2-2-x--7-7--5-5/8---8------------------------2-2-x--7-7--5-5/10-10-10---
Eb|----0-0-x----------------------------------------0-0-x----------------------


Verse Riff: Guitar 2
					3x				Last time
Eb|----------------------------------------------------------------------------
Bb|----------------------------------------------------------------------------
Gb|-----------------------------------------------------------0-0h3p0-7--------
Db|----2-2-x-x---------------------------------------2-2-x-x----------5--------
Ab|----2-2-x-x---------------------------------------2-2-x-x-------------------
Eb|----0-0-x-x---------------------------------------0-0-x-x-------------------

The guitar part under the vocals is pretty self explanatory, with the second 
half being the same as the intro... Then...

Chorus: Guitars 1 and 2.
Eb|----------------------------------------------------------------------------
Bb|----------------------------------------------------------------------------
Gb|------------5/7--7--7-------------------------------------------------------
Db|----2-x-----5/7--7--7--0---5--5--5--5---------------------------------------
Ab|----2-x-0---3/5--5--5--0---5--5--5--5---------------------------------------
Eb|----0-x-0---3/5--5--5--0---3--3--3--3---------------------------------------

Repeat whole process...Then...

Bridge: Guitars 1 and 2.
Eb|----------------------------------------------------------------------------
Bb|----------------------------------------------------------------------------
Gb|----------------------------------------------------------------------------
Db|----2-x-0-7\6--6-6\5--5-5\4-4\3-3\2-----------------------------------------
Ab|----2-x-0-5\4--4-4\3--3-3\2-2\1-1\0-----------------------------------------
Eb|----0-x-0-5\4--4-4\3--3-3\2-2\1-1\0-----------------------------------------


Bridge: Guitars 1 and 2 - one guitar part has a wah wah effect on it, along 
with some chorus
Eb|----------------------------------------------------------------------------
Bb|----------------------------------------------------------------------------
Gb|-9-9-9-9-9-9-9-9-9-9-9-9-9-9-9-9-9-9-9-9-9-9-9-9-9-9-9-9-9-7-7-7------------
Db|----------------------------------------------------------------------------
Ab|----------------------------------------------------------------------------
Eb|----------------------------------------------------------------------------


Repeat Chorus twice and end the song thus…
Eb|----------------------------------------------------------------------------
Bb|----------------------------------------------------------------------------
Gb|---------------------7-5-----------------------7-7--------------------------
Db|---2-2-x-x--x--x--x--7-5---2-2--x--x--x--x--x--7-7--------------------------
Ab|---2-2-x-x--x--x--x--5-3—--2-2--x--x--x--x--x--5-5--------------------------
Eb|---0-0-x-x--x--x--x--5-3—--0-0--x--x--x--x--x--5-5--------------------------

-------------------------------------------------------------------------------
			   2. Seether – 69 tea
-------------------------------------------------------------------------------
Tuning: E,A,D,G,B,E
Intro/Verse(light distortion)
E|---------------------------------------------------------------------------|
B|---------------------------------------------------------------------------|
G|----------------------77h8p7-----------------------------------------------|
D|------7--------------------------------------------------------------------|
A|---5--5--7—8Let ring-------------------------------------------------------|
E|---3-----5—6Let ring-------------------------------------------------------|

Chorus (distortion)
E|---------------------------------------------------------------------------|
B|---------------------------------------------------------------------------|
G|--9--------5---------------------------------------------------------------|
D|--9--9--7--5---------------------------------------------------------------|
A|--7--9--7--3---------------------------------------------------------------|
E|--7--7--5--3---------------------------------------------------------------|

Chorus Continued
E|---------------------------------------------------------------------------|
B|---------------------------------------------------------------------------|
G|--9--------5---------------------------------------------------------------|
D|--9--9--7--5---x-x-x-------------------------------------------------------|
A|--7--9--7--3---x-x-x-------------------------------------------------------|
E|--7--7--5------x-x-x-------------------------------------------------------|

Bridge
E|---------------------------------------------------------------------------|
B|---------------------------------------------------------------------------|
G|--5-----4------------------------------------------------------------------|
D|--5--6--4--3---------------------------------------------------------------|
A|--3--6--2--3---------------------------------------------------------------|
E|-----4--2--1---------------------------------------------------------------|

Solo (play 3 times)
E|---------------------------------------------------------------------------|
B|---15-----15-----15-----17----18----17-------------------------------------|
G|-----14-----14-----14-----14----14----14-----------------------------------|
D|---------------------------------------------------------------------------|
A|---------------------------------------------------------------------------|
E|---------------------------------------------------------------------------|

On the 4th time of the solo go…….
E|---------------------------------------------------------------------------|
B|---15-----15----15-----17----18----17--------------------------------------|
G|-----14-----14----14-----14----14-----14-----------------------------------|
D|--------------------------------------------14~----------------------------|
A|---------------------------------------------------------------------------|
E|---------------------------------------------------------------------------|

Chorus
Chorus/bridge

| /  slide up
| \  slide down
| h  hammer-on
| p  pull-off
| ~  vibrato
| +  harmonic
| x  Mute note
-------------------------------------------------------------------------------
			   3. Seether- Fine Again
-------------------------------------------------------------------------------
Tuning: E,A,D,G,B,E
Intro/Guitar 1
E|---------------------------------------------------------------------------|
B|---------------------------------------------------------------------------|
G|--------------------7-7-7--------------------------------------------------|
D|-----4----7----2----7-7-7--------------------------------------------------|
A|---4-----7----2-----5-5-5--------------------------------------------------|
E|-2----2/5--5-0--0---5-5-5--------------------------------------------------|
Intro/Guitar 2
E|--4-45--54-45---4-45--54-4-2~----------------------------------------------|
B|---5---5--5------5---5--5--------------------------------------------------|
G|---------------------------------------------------------------------------|
D|---------------------------------------------------------------------------|
A|---------------------------------------------------------------------------|
E|---------------------------------------------------------------------------|
Verse (figure out the rythem)
E|---------------------------------------------------------------------------|
B|---------------------------------------------------------------------------|
G|-----------7---------------------------------------------------------------|
D|--4--7--2--7----------------------------------------------------(till chorus)
A|--4--7--2--5---------------------------------------------------------------|
E|--2--5--0--5---------------------------------------------------------------|
Chorus (figure out rythem)
E|---------------------------------------------------------------------------|
B|---------------------------------------------------------------------------|
G|-----7--4------------------------------------------------------------------|
D|--4--7--4--2---------------------------------------------------------------|
A|--4--5--2--2---------------------------------------------------------------|
E|--2--5--2--0---------------------------------------------------------------|
Bridge
E|---------------------------------------------------------------------------|
B|---------------------------------------------------------------------------|
G|---------------------------------------------------------------------------|
D|---------------------------------------------------------------------------|
A|--5-5\2-2-2/5--------------------------------------------------------------|
E|---------------------------------------------------------------------------|
Solo at the bridge
E|--9--10------10--10--------------------------------------------------------|
B|---10--10---9--10----------------------------------------------------------|
G|---------------------------------------------------------------------------|
D|---------------------------------------------------------------------------|
A|---------------------------------------------------------------------------|
E|---------------------------------------------------------------------------|
Then sometimes in the chorus for the solo thing he does….
E|--9--10------10--10-----10--12--10-----------------------------------------|
B|---10--10---9--10--10--9--10--10--10---------------------------------------|
G|---------------------------------------------------------------------------|
D|---------------------------------------------------------------------------|
A|---------------------------------------------------------------------------|
E|---------------------------------------------------------------------------|
| /  slide up
| \  slide down
| h  hammer-on
| p  pull-off
| ~  vibrato
| +  harmonic
| x  Mute note



-------------------------------------------------------------------------------
			   4. Seether- Needles
-------------------------------------------------------------------------------
Tuning
D,A,D,G,B,E
Intro
   D
E--0------------------------------------------------------------------------|
B--3------------------------------------------------------------------------|
G--2------------------------------------------------------------------------|
D--0------------------------------------------------------------------------|
A---------------------------------------------------------------------------|
D---------------------------------------------------------------------------|
Chorus
E---------------------------------------------------------------------------|
B---------------------------------------------------------------------------|
G---------------------------------------------------------------------------|
D--0h233p2p0----0-0-3p0-0-0-0-0-3p0--555-5---1-1----------------------------|
A--0h233p2p0----0-0-3p0-0-0-0-0-3p0--333-5—--1-1----------------------------|
D--0h233p2p0----0-0-3p0-0-0-0-0-3p0------5—--1-1----------------------------|

Then you do the verse again but then for the last art of the
verse it kicks in with distortion.............
E-------------------------------------------------------------------------|
B-------------------------------------------------------------------------|
G-------------------------------------------------------------------------|
D—-0-x-x-0-----3333H5---0-x-x-0--555-0H23P2P0-----------------------------|
A—-0-x-x-0-----3333H5---0-x-x-0--333-0H23P2P0-----------------------------|
D—-0-x-x-0-----3333H5---0-x-x-0------0H23P2P0-----------------------------|
Then it goes into the chorus,and then after that the bridge which is right here…..
E----------------------
B----------------------
G----------------------
D1-1-1-1-0---1111-0----
A1-1-1-1-0---1111-0----
D1-1-1-1-0---1111-0----
Then
"FU!# YOU FOR KILLING ME"
E----------------------------------
B----------------------------------
G----------------------------------
D—0-0-0-x-x-3P223P22-000-x-x-----1-
A—0-0-0-x-x-3P223P22-000-x-x-2H3-1-
D—0-0-0-x-x-3P223P22-000-x-x-----1-
SOLO
E--------------------------------------
B--10----10----10-----------13--15--13-
G-7--10-7--10-7--7SLIDEUP-10--10--10---
D--------------------------------------
A--------------------------------------
D--------------------------------------
SOLO CONTINUED
E-------------------------------
B---10----10--8LET RING AND BEND
G--7--10-7--7-------------------
D-------------------------------
A-------------------------------
D-------------------------------
SOLO CONTINUED AGAIN
E--------------------------------------------------------
B-10101010101011010--------1313131313151515-101010-8888--
G-7777777777777777SLIDE UP-1010101010101010-777777-------
D--------------------------------------------------------
A--------------------------------------------------------
D--------------------------------------------------------

-------------------------------------------------------------------------------
			   5. Seether – Driven Under
-------------------------------------------------------------------------------
Tuning:E,A,D,G,B,E
Intro/Verse
E|---------------------------------------------------------------------------|
B|---------------------------------------------------------------------------|
G|---------------------------------------------------------------------------|
D|------14----14----14-----14----14--------14----14----14-12-14-12-14--------|
A|----12-----12---12-----12----12--------12----12----12----------------------|
E|--13-----13---13-----13----13-----13-12----12----12------------------------|
Chorus (figure out the rythem)
E|--------------0------------------------------------------------------------|
B|--------------0------------------------------------------------------------|
G|--------------0—Bend the neck-if u want------------------------------------|
D|--3---7--3--2-2------------------------------------------------------------|
A|--3---7--3--2-2------------------------------------------------------------|
E|--1---5--1--0-0------------------------------------------------------------|
Solo coming out of the chorus
E|---------------------------------------------------------------------------|
B|---------------------------------------------------------------------------|
G|---------------------------------------------------------------------------|
D|---10~-9-10/7~---14-12\17~/14~-Then Kinda-Slide down-----------------------|
A|---------------------------------------------------------------------------|
E|---------------------------------------------------------------------------|
Bridge
E|---------------------------------------------------------------------------|
B|---------------------------------------------------------------------------|
G|---7-----5-----------------------------------------------------------------|
D|---7--3--5--5--3-----------------------------------------------------------|
A|---5--3--3--5--3-----------------------------------------------------------|
E|------1-----3--1-----------------------------------------------------------|
End of bridge
E|---------------------------------------------------------------------------|
B|---------------------------------------------------------------------------|
G|---------------------------------------------------------------------------|
D|---------------------------------------------------------------------------|
A|---------------------------------------------------------------------------|
E|--1-1/5-5-5\1--------------------------------------------------------------|
| /  slide up
| \  slide down
| h  hammer-on
| p  pull-off
| ~  vibrato
| +  harmonic
| x  Mute note
-------------------------------------------------------------------------------
			   6. PRIDE - Seether
-------------------------------------------------------------------------------
Tuning: D,A,D,G,B,E

Intro
e|----------------------------------------------------------------------------
B|----------------------------------------------------------------------------
G|----------------------------------------------------------------------------
D|--1p0-3p00------------------------------------------------------------------
A|--1p0-3p00------------------------------------------------------------------
D|--1p0-3p00------------------------------------------------------------------

Verse
e|---------------------------------------------------------------------------
B|---------------------------------------------------------------------------
G|---------------------------------------------------------------------------
D|--1p0-3p0--x-x-------------------------------------------------------------
A|--1p0-3p0--x-x-------------------------------------------------------------
D|--1p0-3p0--x-x-------------------------------------------------------------

Verse Continued("In Time You Will")figure out the strumming!
e|---------------------------------------------------------------------------|
B|---------------------------------------------------------------------------|
G|--3--7---------------------------------------------------------------------|
D|--3--5---------------------------------------------------------------------|
A|--1--5---------------------------------------------------------------------|
D|-----5---------------------------------------------------------------------|

Chorus(figure out the strumming)
e|----------------------------------------------------------------------------
B|--3-------------------------------------------------------------------------
G|--2--5--10------------------------------------------------------------------
D|--0--5--8---1p0-3p0-1p0-----------------------------------------------------
A|-----3--8---1p0-3p0-1p0-----------------------------------------------------
D|--------8---1p0-3p0-1p0-----------------------------------------------------

Verse

Chorus

Bridge("I am violence")
e|-----------------------------------------------------------------------------
B|-----------------------------------------------------------------------------
G|-----7slideup10-----10slidedown-7------7slideup10-----10slideup-12-----------
D|--0--x--------x---0--x----------x---0--x--------x---0--x---------x-----------
A|--0--5slideup-8---0--8slidedown-5---0--5slideup-8---0--8slideup-10-----------
D|--0---------------0-----------------0---------------0------------------------

Brige Continued(Then do that ^^^^^^ 4 times but on the last part of the 4th time
do this.........)fgure out the strumming
e|--------------------------------------------------------------------------
B|--------------------------------------------------------------------------
G|--14--15--17--------------------------------------------------------------
D|--x---x---x---------------------------------------------------------------
A|--12--13--15--------------------------------------------------------------
D|--------------------------------------------------------------------------

Chorus

| /  slide up
| \  slide down
| h  hammer-on
| p  pull-off
| ~  vibrato
| +  harmonic
| x  Mute note
-------------------------------------------------------------------------------
			   7. Seether-Sympathetic
Tuning=E,A,D,G,B,E
Intro (just keep doing this)
E|----0----------------------------------------------------------------------|
B|---3-3---------------------------------------------------------------------|
G|--2------------------------------------------------------------------------|
D|---------------------------------------------------------------------------|
A|---------------------------------------------------------------------------|
E|---------------------------------------------------------------------------|
Verse
E|-0--0-0--0--0-0--3--3-3--3-3-3---------------------------------------------|
B|-3--3-3--2--2-2--3--3-3--3-3-3---------------------------------------------|
G|-2--2-2--2--2-2--0--0-0--0-0-0---------------------------------------------|
D|-0--0-0--2--2-2--0--0-0--0-0-0---------------------------------------------|
A|---------0--0-0--2--2-2--2-2-2---------------------------------------------|
E|-----------------3--3-3--3-3-3---------------------------------------------|
Chorus (figure out the rythem)
E|---------------------------------------------------------------------------|
B|---------------------------------------------------------------------------|
G|--7------------------------------------------------------------------------|
D|--7--9--5------------------------------------------------------------------|
A|--5--9--5------------------------------------------------------------------|
E|-----7--3------------------------------------------------------------------|
Bridge (figure out rythem)
E|---------------------------------------------------------------------------|
B|---------------------------------------------------------------------------|
G|--------7------------------------------------------------------------------|
D|--9--5--7--7---------------------------------------------------------------|
A|--9--5--5--7---------------------------------------------------------------|
E|--7--3-----5---------------------------------------------------------------|

| /  slide up
| \  slide down
| h  hammer-on
| p  pull-off
| ~  vibrato
| +  harmonic
| x  Mute note

===============================================================================
-------------------------------------------------------------------------------
			   8. Seether- Your Bore
-------------------------------------------------------------------------------
Tuning: D,A,D,G,B,E
Intro/verse
         3x       3x
e|---------------------------------------------------------------------------|
B|---------------------------------------------------------------------------|
G|-------8-------6-----------------------------------------------------------|
D|-----6-------4---------4-----4---4---4----4-2------------------------------|
A|---4-------2----------2-----2---2---2----2---------------------------------|
D|---------------------2-----2---2---2----2----------------------------------|
Chorus 
e|----------------------------------------------------------------------------|
B|----------------------------------------------------------------------------|
G|--6-4-----------------------------------------------------------------------|
D|--6-4--2222h444h66----------------------------------------------------------|
A|--4-2--2222h444h66----------------------------------------------------------|
D|-------2222h444h66----------------------------------------------------------|

Guitar 2 part of chorus (figure out rythem)

e|----------------------------------------------------------------------------|
B|----------------------------------------------------------------------------|
G|--6-8-9-11-13---------------------------------------------------------------|
D|--x-x-x-x--x----------------------------------------------------------------|
A|--4-6-7-9--11---------------------------------------------------------------|
D|----------------------------------------------------------------------------|

Bridge
e|----------------------------------------------------------------------------|
B|----------------------------------------------------------------------------|
G|----------------------------------------------------------------------------|
D|-0-1-2--0-1-2-5-5------------------------------------------------------------
A|-0-1-2--0-1-2-5-5------------------------------------------------------------
D|-0-1-2--0-1-2-5-5------------------------------------------------------------


Chorus

| /  slide up
| \  slide down
| h  hammer-on
| p  pull-off
| ~  vibrato
| +  harmonic
| x  Mute note
===============================================================================
-------------------------------------------------------------------------------
			   9. Seether- Fade Away
-------------------------------------------------------------------------------
tuning
E,A,D,G,B,E

INTRO(the bass is playing then u hit harmonics)
E--------------------------0----------------
B--------------------------1----------------
G--------------------------2----------------
D--5*----------------------2----------------
A----5*--------------------0-----------------
E-------------------------------------------

Verse
|------------------------------------------------------|  X4
|--1---------------0--0p1h0-------1—--3p1-----3p1---1--|
|----(Let Ring)---0----------0-------------------------|
|-3------------------------0----------------0----------|
|-------------------------------0---0------0-------0---|
|------------------------------------------------------|
Chorus
yOU CAN FIGURE OUT HE STRUMMING,ITS PRETTY SIMPLE
E--2------0----0--------------------
B--2------1----1--------------------
G--0--2---2----0--------------------
D--0--3---2----2--------------------
A--2--3---0----3--------------------
E--3--1-----------------------------
   G  F         C

CHORUS 2
AGAIN U SHOUL NO THE STRUMMING
E----------------------------------------
B----------------------------------------
G------------------------------------2---
D--22222-44444-55555-77777-------5-3-2-5-
A--00000-22222-33333-55555-------5-3-0-3-
E--------------------------------3-1---3-

BRIDGE
STRUMMING AGAIN(U GUESS IT)
E----------------------------------------
B----------------------------------------
G-----7---------------5-7-2--------------
D--2--7(OR 5-5-7)-----5-7-2--------------
A--2--5---------------3-5-0--------------
E--0-------------------------------------

SOLO
JUST FIGURE OUT HOW MANY TIMES TO HIT THE NOTES
E----------------------------------------------
B----------------------------------------------
G--12-14-16-17P16--17P16---16-12-14-9-11-12-14-
D----------------17-----17---------------------
A----------------------------------------------
E----------------------------------------------


-------------------------------------------------------------------------------
			   10. Seether - Pig
-------------------------------------------------------------------------------
Tuning: Db,Ab,Db,Gb,Bb,Eb (c#)

| ---------------------------------------------------------------
| ---------------------------------------------------------------
| -----------------------------5b--------------------------------
| -x-x-x--x-x-x--x-x-x--x-x-x-----1pu0--0--1puo0-0-0-0-0--1-2-5--
| -x-x-x--x-x-x--x-x-x--x-x-x--3b-1pu0--0--1puo0-0-0-0-0--1-2----
| -x-x-x--x-x-x--x-x-x--x-x-x-----1pu0--0--1puo0-0-0-0-0--1-2-3--
Intro -
| --------------------------------------------------------------
| --------------------------------------------------------------
| --------------------------------------------------------------
| -1pu0--0--1puo0-0-0-0-0--1-2-5--x-x-x-x-1pu0--0--0-0-0--1-2-5-
| -1pu0--0--1puo0-0-0-0-0--1-2----x-x-x-x-1pu0--0--0-0-0--1-2---
| -1pu0--0--1puo0-0-0-0-0--1-2-3--x-x-x-x-1pu0--0--0-0-0--1-2-3-

Intro (continued...)
| --------------------------------
| --------------------------------
| --------------------------------
| -1pu0--0--1pu0--0--0-0--0-1-2-5-
| -1pu0--0--1pu0--0--0-0--0-1-2---
| -1pu0--0--1pu0--0--0-0--0-1-2-3-

Verse
| -------------------------------
| -------------------------------
| --------------5b---------------
| -x-x-x--x-x-x------------------
| -x-x-x--x-x-x—3b---------------
| -x-x-x--x-x-x------------------

Prechorus
| ------------------------------------------------------------
| ------------------------------------------------------------
| ------------------------------------------------------------
| -0-0-0-0-0--0-1-1-1-1-3-3-3-3--0-0-0-0-0--0-1-1-1-1-5-5-5-5-
| -0-0-0-0-0--0-1-1-1-1-3-3-3-3--0-0-0-0-0--0-1-1-1-1-3-3-3-3-
| -0-0-0-0-0--0-1-1-1-1-3-3-3-3--0-0-0-0-0--0-1-1-1-1---------

Chours
| -------------------------------------------
| -------------------------------------------
| -------------------------------------------
| -1pu0--0--1pu0--0--0-0--0-1-2-5--0-0-0-0-0-
| -1pu0--0--1pu0--0--0-0--0-1-2----0-0-0-0-0-
| -1pu0--0--1pu0--0--0-0--0-1-2-3--0-0-0-0-0-
 
Bridge
| ---------------------------------------------------------------------
| ---------------------------------------------------------------------
| ---------------------------------------------------------------------
| -7-7-7-7-7-7-7-8-8-8-8-10-10-10-10-10---7-7-7-7-7-7-7-8-8-8-8-5-5-5-5
| -5-5-5-5-5-5-5-6-6-6-6--8--8--8--8--8---5-5-5-5-5-5-5-6-6-6-6-3-3-3-3
| ---------------------------------------------------------------------

-------------------------------------------------------------------------------
			   11.  Seether – Fuck It
-------------------------------------------------------------------------------
Tuning: Db,Ab,Db,Gb,Bb,Eb (C#,F#,C#,etc.those are the only strings I tune down)
Intro/Verse
Eb|--------------------------------------------------------------------------
Bb|--------------------------------------------------------------------------
Gb|--------------------------------------------------------------------------
Db|---------------------------7----------------------------------------------
Ab|---9--9--9—-10—-10slidedown7--------9--9--9--10—-10h12--------------------
Db|--9--9--9--9---9-----------7-------9--9--9--9---9-------------------------
Chorus (this is 100% correct)
Eb|---------------------------------------------------------------------------|
Bb|---------------------------------------------------------------------------|
Gb|---------------------------------------------------------------------------|
Db|--0-1-1-0-6-5-0-8----------------------------------------------------------|
Ab|--0-1-1-0-6-5-0-8----------------------------------------------------------|
Db|--0-1-1-0-6-5-0-8----------------------------------------------------------|
Bridge (hand-muted)
Eb|---------------------------------------------------------------------------|
Bb|---------------------------------------------------------------------------|
Gb|---------------------------------------------------------------------------|
Db|--0-0-0--0--0-1-1-3--------------------------------------------------------|3x
Ab|--0-0-0--0--0-1-1-3--------------------------------------------------------|
Db|--0-0-0--0--0-1-1-3--------------------------------------------------------|
Bridge Continued (on the 4th time of the bridge do this…….)
Eb|---------------------------------------------------------------------------|
Bb|---------------------------------------------------------------------------|
Gb|---------------------------------------------------------------------------|
Db|--0-0-0--0--0-3-0-1--------------------------------------------------------|
Ab|--0-0-0--0--0-3-0-1--------------------------------------------------------|
Eb|--0-0-0--0--0-3-0-1--------------------------------------------------------|

Chorus

| /  slide up
| \  slide down
| h  hammer-on
| p  pull-off
| ~  vibrato
| +  harmonic
| x  Mute note

===============================================================================
-------------------------------------------------------------------------------
			  12.  Seether - Broken
-------------------------------------------------------------------------------
Tuning:EADGBE
Thi song is kinda hard on getting your fingers in the right place but eventually
u will get it!Good Luck!!(kinda strum the chords along with hitting the bottom notes)
Intro
E|--2h333----333-----2h333----333--------2h33------333------------------------
B|-----------2----------------2--------------------2--------------------------
G|-----------0----------------0--------------------0--------------------------
D|-----------2----------------2--------------------2--------------------------
A|--2--------3-------2--------3----------2---------3--------------------------
E|--0----------------0-------------------0------------------------------------
Intro Continued
E|---0h22h3p2-0h22h3p2--------------------------------------------------------
B|---3--------3---------------------------------------------------------------
G|---2--------2---------------------------------------------------------------
D|---0--------0---------------------------------------------------------------
A|----------------------------------------------------------------------------
E|----------------------------------------------------------------------------
Chorus (lightly strum)
E|---0---0---0----------------------------------------------------------------
B|---1---0---3----------------------------------------------------------------
G|---0---0---2----------------------------------------------------------------
D|---2---2---0----------------------------------------------------------------
A|---3---2--------------------------------------------------------------------
E|-------0--------------------------------------------------------------------
     C  Em?  D

Solo
E--------------------------------------0-------------------
B-----------------------------------0----0-----------------
G----------------------------------------------------------
D--------0-2-2/5-4-4/2-4/2-2-------------------------------
A---0-2----------------------------------------------------
E-0--------------------------------------------------------

E----------------------------------------------------------
B----------------------------------------------------------
G-----------------------------------7-5-4-2h4-4-4----------
D--------0-2-2/5-4-4/2-4/2-7-------------------------------
A---0-2----------------------------------------------------
E-0--------------------------------------------------------

E--------------------------------------------0-------------
B-----------------------------------------0----------------
G----------------------------------------------------------
D--------0-2-2/5-4-4/2-4/2-7-5-2---------------------------
A---0-2----------------------------------------------------
E-0--------------------------------------------------------

E----------------------------------------------------------------------------
B----------------------------------------------------------------------------
G-----------------------------------7-5-4-2h4-4-4----------------------------
D--------0-2-2/5-4-4/2-4/2-7-------------------------------------------------
A---0-2----------------------------------------------------------------------
E-0--------------------------------------------------------------------------

| /  slide up
| \  slide down
| h  hammer-on
| p  pull-off
| ~  vibrato
| +  harmonic
| x  Mute note

And that’s the whole album, I think its pretty accurate.
comments
print report bad tab
22 comments total. Showing first comments.
0 reply
ghotihookfreak wrote on March 7 2003, 12:00 am

nice job! i thought that on gasoline it was kinda like this:
E-----------------------------
B-----3-2-0-0-0h2p0-0---------
G-----3-2-0---0h2p0-0---------
D-2-2-------------------------
A-2-2-------------------------
E-0-0-------------------------
yours is a lot easier

0 reply
slipvayne311 wrote on March 10 2003, 12:00 am

dude fine again is wrong. no one realizes it but its either played in drop d or a lower tuning. u missed a few things here and there but otherwise nt bad tab.

0 reply
SeetherGuy wrote on March 10 2003, 12:00 am

hi this is the person who posted the tab,no fine again is right,if u go to seether.com and go to the message board,shaun morgan even posted to me how to play it,it is in E,every1 is wrong when they play it in a lower tuning unless they actually hit the inverted chords which i see no one has.

I want to post or [tab]
guest
You may want to rate the tab now too:
select rating
Please do not post tabs as comments. Select "correction" instead!