Oops, an error
Loading. Please wait.

Effigy Tab

967 views 12 this week
no commentswrite comment
1 2 3 4 5
excellent!
x 2
Autoscroll
+/-
esc
set tempo
stop
Contributor
Difficulty
Tuning
K&F
intermediate
C G C F A D
Hey! There's an official Ultimate Guitar app which is ideal
for learning songs when you're away from computer. Get the app
WARNING: You are trying to view
                                    content from Ultimate-Guitar.com
                                    in an unauthorized application,
                                    which is prohibited.

                                    Please use an official Ultimate
                                    Guitar Tabs application for iPhone,
                                    iPad or Android to access legitimate
                                    chords, guitar, bass, and drum tabs
                                    from Ultimate-Guitar.com database.

                                    Type "ultimate guitar tabs" in Apple
                                    App Store's or Android Market's
                                    search to find the application.
-------------------------------------------------------------------------------
                             Effigy - Seether
-------------------------------------------------------------------------------
Tabbed by: K&F
Email: tiagofcamaral@hotmail.com

Another great song from Seether and their album Holding Onto Strings Better Left to Fray.
This song is one of the bonus tracks that comes with the deluxe edition of the album.
Have fun! I know I did!
Help and constructive criticism are welcome.

Tuning:CGCFAD
Tabed for one guitar

| /   slide up
| \   slide down
| h   hammer-on
| +   harmonic
| x   Mute note

Intro:
D|-------------------------------------|
A|-------------------------------------|
F|-------------------------------------|
C|-------------------------------------|
G|-------------------------------------|
C|-0-0-0-3(+)-3(+)-3(+)-3(+)-3(+)-3(+)-|

D|-------------------------------------|
A|-------------------------------------|
F|-------------------------------------|
C|-------------------------------------|
G|-------------------------------------|
C|-0-0-0-3(+)-3(+)-3(+)-3(+)-3(+)-3(+)-|

D|-------------------------------------|
A|-------------------------------------|
F|-------------------------------------|
C|-------------------------------------|
G|-------------------------------------|
C|-0-0-0-3(+)-3(+)-3(+)-3(+)-3(+)-3(+)-|

D|-------------------------------------|
A|-------------------------------------|
F|-------------------------------------|
C|-------------------------------------|
G|-------------------------------------|
C|-0-0-0-3(+)-3(+)-3(+)-3(+)-3(+)-3(+)-|

D|-------------------------------------|
A|-------------------------------------|
F|-------------------------------------|
C|-------------------------------------|
G|-------------------------------------|
C|-0-0-0-3(+)-3(+)-3(+)-3(+)-3(+)-3(+)-|

D|-------------------------------------|
A|-------------------------------------|
F|-------------------------------------|
C|-------------------------------------|
G|-------------------------------------|
C|-0-0-0-3(+)-3(+)-3(+)-3(+)-3(+)-3(+)-|

D|-------------------------------------|
A|-------------------------------------|
F|-------------------------------------|
C|-------------------------------------|
G|-------------------------------------|
C|-0-0-0-3(+)-3(+)-3(+)-3(+)-3(+)-3(+)-|

D|-------------------------------------|
A|-------------------------------------|
F|-------------------------------------|
C|-------------------------------------|
G|-------------------------------------|
C|-0-0-0-3(+)-3(+)-3(+)-3(+)-3(+)-3(+)-|

Verse:
               x x x x x x
D|-----------------------------------------------------------|
A|-----------------------------------------------------------|
F|-------------------------3\5-5-5-5-5-5-5-5-5-5-5-5-5-5-5-5-|
C|-5\7-7-7-5\7-----------------------------------------------|
G|-3\5-5-5-3\5-----------------------------------------------|
C|-------------0-0-0-0-0-0-----------------------------------|

               x x x x x x
D|-----------------------------------------------------------|
A|-----------------------------------------------------------|
F|-------------------------3\5-5-5-5-5-5-5-5-5-5-5-5-5-5-5-5-|
C|-5\7-7-7-5\7-----------------------------------------------|
G|-3\5-5-5-3\5-----------------------------------------------|
C|-------------0-0-0-0-0-0-----------------------------------|

               x x x x x x
D|-----------------------------------------------------------|
A|-----------------------------------------------------------|
F|-------------------------3\5-5-5-5-5-5-5-5-5-5-5-5-5-5-5-5-|
C|-5\7-7-7-5\7-----------------------------------------------|
G|-3\5-5-5-3\5-----------------------------------------------|
C|-------------0-0-0-0-0-0-----------------------------------|

               x x x x x x
D|-----------------------------------------------------------|
A|-----------------------------------------------------------|
F|-------------------------3\5-5-5-5-5-5-5-5-5-5-5-5-5-5-5-5-|
C|-5\7-7-7-5\7-----------------------------------------------|
G|-3\5-5-5-3\5-----------------------------------------------|
C|-------------0-0-0-0-0-0-----------------------------------|

Pre Chorus:
      x  x  x  x  x  x  x  x  x  x
D|---------------------------------------------------------------------------|
A|---------------------------------------------------------------------------|
F|-10-10-10-10-10-10-10-10-10-10-10-----------10-10-10/9-----12-12-12/10-----|
C|-8--8--8--8--8--8--8--8--8--8--8--8h10-12-0-x--x--x/x------x--x---x/x------|
G|-8--8--8--8--8--8--8--8--8--8--8--8h10-12-0-8--8--8/7------10-10-10/8------|
C|-8--8--8--8--8--8--8--8--8--8--8--8h10-12-0------------0-0-----------------|

      x  x  x  x  x  x  x  x  x  x
D|---------------------------------------------------------------------------|
A|---------------------------------------------------------------------------|
F|-10-10-10-10-10-10-10-10-10-10-10-----------10-10-10/9-----12-12-12/10-----|
C|-8--8--8--8--8--8--8--8--8--8--8--8h10-12-0-x--x--x/x------x--x---x/x------|
G|-8--8--8--8--8--8--8--8--8--8--8--8h10-12-0-8--8--8/7------10-10-10/8------|
C|-8--8--8--8--8--8--8--8--8--8--8--8h10-12-0------------0-0-----------------|

      x  x  x  x  x  x  x  x  x  x
D|---------------------------------------------------------------------------|
A|---------------------------------------------------------------------------|
F|-10-10-10-10-10-10-10-10-10-10-10-----------10-10-10/9-----12-12-12/10-----|
C|-8--8--8--8--8--8--8--8--8--8--8--8h10-12-0-x--x--x/x------x--x---x/x------|
G|-8--8--8--8--8--8--8--8--8--8--8--8h10-12-0-8--8--8/7------10-10-10/8------|
C|-8--8--8--8--8--8--8--8--8--8--8--8h10-12-0------------0-0-----------------|

      x  x  x  x  x  x  x  x  x  x
D|------------------------------------------------------------------------------|
A|------------------------------------------------------------------------------|
F|-10-10-10-10-10-10-10-10-10-10-10-----------7-7-7-7-7-7-7-7-7-7-7-7-7-7-7-7-7-|
C|-8--8--8--8--8--8--8--8--8--8--8--8h10-12-0-5-5-5-5-5-5-5-5-5-5-5-5-5-5-5-5-5-|
G|-8--8--8--8--8--8--8--8--8--8--8--8h10-12-0-5-5-5-5-5-5-5-5-5-5-5-5-5-5-5-5-5-|
C|-8--8--8--8--8--8--8--8--8--8--8--8h10-12-0-5-5-5-5-5-5-5-5-5-5-5-5-5-5-5-5-5-|
    And I've been     looking for something  to keep me coming back for more! 


Chorus:
               x x x x x x
D|-----------------------------------------------------------|
A|-----------------------------------------------------------|
F|-------------------------3\5-5-5-5-5-5-5-5-5-5-5-5-5-5-5-5-|
C|-5\7-7-7-5\7-----------------------------------------------|
G|-3\5-5-5-3\5-----------------------------------------------|
C|-------------0-0-0-0-0-0-----------------------------------|

               x x x x x x
D|-----------------------------------------------------------|
A|-----------------------------------------------------------|
F|-------------------------3\5-5-5-5-5-5-5-5-5-5-5-5-5-5-5-5-|
C|-5\7-7-7-5\7-----------------------------------------------|
G|-3\5-5-5-3\5-----------------------------------------------|
C|-------------0-0-0-0-0-0-----------------------------------|


               x x x x x x
D|-----------------------------------------------------------|
A|-----------------------------------------------------------|
F|-------------------------3\5-5-5-5-5-5-5-5-5-5-5-5-5-5-5-5-|
C|-5\7-7-7-5\7-----------------------------------------------|
G|-3\5-5-5-3\5-----------------------------------------------|
C|-------------0-0-0-0-0-0-----------------------------------|


               x x x x x x
D|-----------------------------------------------------------|
A|-----------------------------------------------------------|
F|-------------------------3\5-5-5-5-5-5-5-5-5-5-5-5-5-5-5-5-|
C|-5\7-7-7-5\7-----------------------------------------------|
G|-3\5-5-5-3\5-----------------------------------------------|
C|-------------0-0-0-0-0-0-----------------------------------|

Pre Chorus:
      x  x  x  x  x  x  x  x  x  x
D|---------------------------------------------------------------------------|
A|---------------------------------------------------------------------------|
F|-10-10-10-10-10-10-10-10-10-10-10-----------10-10-10/9-----12-12-12/10-----|
C|-8--8--8--8--8--8--8--8--8--8--8--8h10-12-0-x--x--x/x------x--x---x/x------|
G|-8--8--8--8--8--8--8--8--8--8--8--8h10-12-0-8--8--8/7------10-10-10/8------|
C|-8--8--8--8--8--8--8--8--8--8--8--8h10-12-0------------0-0-----------------|

      x  x  x  x  x  x  x  x  x  x
D|---------------------------------------------------------------------------|
A|---------------------------------------------------------------------------|
F|-10-10-10-10-10-10-10-10-10-10-10-----------10-10-10/9-----12-12-12/10-----|
C|-8--8--8--8--8--8--8--8--8--8--8--8h10-12-0-x--x--x/x------x--x---x/x------|
G|-8--8--8--8--8--8--8--8--8--8--8--8h10-12-0-8--8--8/7------10-10-10/8------|
C|-8--8--8--8--8--8--8--8--8--8--8--8h10-12-0------------0-0-----------------|

      x  x  x  x  x  x  x  x  x  x
D|---------------------------------------------------------------------------|
A|---------------------------------------------------------------------------|
F|-10-10-10-10-10-10-10-10-10-10-10-----------10-10-10/9-----12-12-12/10-----|
C|-8--8--8--8--8--8--8--8--8--8--8--8h10-12-0-x--x--x/x------x--x---x/x------|
G|-8--8--8--8--8--8--8--8--8--8--8--8h10-12-0-8--8--8/7------10-10-10/8------|
C|-8--8--8--8--8--8--8--8--8--8--8--8h10-12-0------------0-0-----------------|

      x  x  x  x  x  x  x  x  x  x
D|------------------------------------------------------------------------------|
A|------------------------------------------------------------------------------|
F|-10-10-10-10-10-10-10-10-10-10-10-----------7-7-7-7-7-7-7-7-7-7-7-7-7-7-7-7-7-|
C|-8--8--8--8--8--8--8--8--8--8--8--8h10-12-0-5-5-5-5-5-5-5-5-5-5-5-5-5-5-5-5-5-|
G|-8--8--8--8--8--8--8--8--8--8--8--8h10-12-0-5-5-5-5-5-5-5-5-5-5-5-5-5-5-5-5-5-|
C|-8--8--8--8--8--8--8--8--8--8--8--8h10-12-0-5-5-5-5-5-5-5-5-5-5-5-5-5-5-5-5-5-|
    And I've been     looking for something  to keep me coming back for more! 

Bridge:
D|----------------------------------------------------------|
A|----------------------------------------------------------|
F|----------------------------------------------------------|
C|---------------------10-9---------------------10-12-9-----|
G|-------5-----3-------8--7-------5-----3-------8--10-7-----|
C|-0-3-5---0-3---0-3-5------0-3-5---0-3---0-3-5-------------|

D|----------------------------------------------------------|
A|----------------------------------------------------------|
F|----------------------------------------------------------|
C|---------------------10-9---------------------10-12-9-----|
G|-------5-----3-------8--7-------5-----3-------8--10-7-----|
C|-0-3-5---0-3---0-3-5------0-3-5---0-3---0-3-5-------------|

D|----------------------------------------------------------|
A|----------------------------------------------------------|
F|----------------------------------------------------------|
C|---------------------10-9---------------------10-12-9-----|
G|-------5-----3-------8--7-------5-----3-------8--10-7-----|
C|-0-3-5---0-3---0-3-5------0-3-5---0-3---0-3-5-------------|

D|----------------------------------------------------------|
A|----------------------------------------------------------|
F|----------------------------------------------------------|
C|---------------------10-9---------------------10-12-9-----|
G|-------5-----3-------8--7-------5-----3-------8--10-7-----|
C|-0-3-5---0-3---0-3-5------0-3-5---0-3---0-3-5-------------|

After Bridge:
               x x x x x x
D|---------------------------------------------|
A|---------------------------------------------|
F|---------------------------------------------|
C|-5\7-7-7-5\7-------------5\7-7-7-10-5-5-5-3--|
G|-3\5-5-5-3\5-------------3\5-5-5-8--3-5-5-3--|
C|-------------0-0-0-0-0-0--------------5-5-3--|

               x x x x x x
D|---------------------------------------------|
A|---------------------------------------------|
F|---------------------------------------------|
C|-5\7-7-7-5\7-------------5\7-7-7-10-5-5-5-3--|
G|-3\5-5-5-3\5-------------3\5-5-5-8--3-5-5-3--|
C|-------------0-0-0-0-0-0--------------5-5-3--|

Last Verse:
               x x x x x x
D|-----------------------------------------------------------|
A|-----------------------------------------------------------|
F|-------------------------3\5-5-5-5-5-5-5-5-5-5-5-5-5-5-5-5-|
C|-5\7-7-7-5\7-----------------------------------------------|
G|-3\5-5-5-3\5-----------------------------------------------|
C|-------------0-0-0-0-0-0-----------------------------------|

               x x x x x x
D|-----------------------------------------------------------|
A|-----------------------------------------------------------|
F|-------------------------3\5-5-5-5-5-5-5-5-5-5-5-5-5-5-5-5-|
C|-5\7-7-7-5\7-----------------------------------------------|
G|-3\5-5-5-3\5-----------------------------------------------|
C|-------------0-0-0-0-0-0-----------------------------------|

               x x x x x x
D|-----------------------------------------------------------|
A|-----------------------------------------------------------|
F|-------------------------3\5-5-5-5-5-5-5-5-5-5-5-5-5-5-5-5-|
C|-5\7-7-7-5\7-----------------------------------------------|
G|-3\5-5-5-3\5-----------------------------------------------|
C|-------------0-0-0-0-0-0-----------------------------------|



Last Pre Chorus:

D|----------------------------------------------------------------|
A|----------------------------------------------------------------|
F|-10-10-10-10-10-10-10-10-10-10-10-------------------------------|
C|-8--8--8--8--8--8--8--8--8--8--8--8h10-12-0-5\7-7-7-10-5-5-5-3--|
G|-8--8--8--8--8--8--8--8--8--8--8--8h10-12-0-3\5-5-5-8--3-5-5-3--|
C|-8--8--8--8--8--8--8--8--8--8--8--8h10-12-0--------------5-5-3--|


D|----------------------------------------------------------------------------------|
A|----------------------------------------------------------------------------------|
F|-10-10-10-10-10-10-10-10-10-10-10-----------7-7-7-7-7-7-7-7-7-7-7-7-7-7-7-7-7-7-7-|
C|-8--8--8--8--8--8--8--8--8--8--8--8h10-12-0-5-5-5-5-5-5-5-5-5-5-5-5-5-5-5-5-5-5-5-|
G|-8--8--8--8--8--8--8--8--8--8--8--8h10-12-0-5-5-5-5-5-5-5-5-5-5-5-5-5-5-5-5-5-5-5-|
C|-8--8--8--8--8--8--8--8--8--8--8--8h10-12-0-5-5-5-5-5-5-5-5-5-5-5-5-5-5-5-5-5-5-5-|
   Pray if you want but you can't get a piece of me; keep me coming back for more!

Last Bridge(End Solo):
D|----------------------------------------------------------|
A|----------------------------------------------------------|
F|----------------------------------------------------------|
C|---------------------10-9---------------------10-12-9-----|
G|-------5-----3-------8--7-------5-----3-------8--10-7-----|
C|-0-3-5---0-3---0-3-5------0-3-5---0-3---0-3-5-------------|

D|----------------------------------------------------------|
A|----------------------------------------------------------|
F|----------------------------------------------------------|
C|---------------------10-9---------------------10-12-9-----|
G|-------5-----3-------8--7-------5-----3-------8--10-7-----|
C|-0-3-5---0-3---0-3-5------0-3-5---0-3---0-3-5-------------|

D|----------------------------------------------------------|
A|----------------------------------------------------------|
F|----------------------------------------------------------|
C|---------------------10-9---------------------10-12-9-----|
G|-------5-----3-------8--7-------5-----3-------8--10-7-----|
C|-0-3-5---0-3---0-3-5------0-3-5---0-3---0-3-5-------------|

D|----------------------------------------------------------|
A|----------------------------------------------------------|   ---------------------------
F|----------------------------------------------------------|  -                           |
C|---------------------10-9---------------------10-12-9-0---| -                            |
G|-------5-----3-------8--7-------5-----3-------8--10-7-0---|<     End the song like that  |
C|-0-3-5---0-3---0-3-5------0-3-5---0-3---0-3-5---------0---| -                            |
                                                               -                           |
                                                                --------------------------- 

And that's pretty much it! Have fun!
comments
We did not receive enough feedback on this tab! Please rate:
print report bad tab
1 2 3 4 5
I want to post or [tab]
guest
You may want to rate the tab now too:
select rating
Please do not post tabs as comments. Select "correction" instead!