Oops, an error
Loading. Please wait.

Finding Beauty In Negative Spaces Tab

19,774 views 12 this week
6 commentsread comments
1 2 3 4 5
excellent!
x 13
Autoscroll
+/-
esc
set tempo
stop
Contributor
Hey! There's an official Ultimate Guitar app which is ideal
for learning songs when you're away from computer. Get the app
WARNING: You are trying to view
                                    content from Ultimate-Guitar.com
                                    in an unauthorized application,
                                    which is prohibited.

                                    Please use an official Ultimate
                                    Guitar Tabs application for iPhone,
                                    iPad or Android to access legitimate
                                    chords, guitar, bass, and drum tabs
                                    from Ultimate-Guitar.com database.

                                    Type "ultimate guitar tabs" in Apple
                                    App Store's or Android Market's
                                    search to find the application.
===============================================================================
                                = SEETHER =
                    - FINDING BEAUTY IN NEGATIVE SPACES -
===============================================================================

tabbed by: aslashwannabee
email: reilmic10@jcpatriot.org

i mostly use the book for this.  there are a few parts where i use my ear
because the book doesn't sound quite right.

in some parts of the tabs, i added lyrics for easier following.  When, and
ONLY when you see"in time with lyrics", play the note that corresponds to the
beginning of the word at the bottom of the staff. for example:

D|--------|
A|--------|
F|-----2--|
C|--------|
G|--------|
C|--------|
   "...example"

...play the 2nd fret on the 3rd string when Shaun (yes thats how you spell
his name) Morgan sings the word "example".  Of course, i probably just made
it a lot more complicated, but hey, i try.

===============================================================================
01 - Like Suicide
Tuning - Drop C
1-D
2-A
3-F
4-C
5-G
6-C

INTRO: GUITAR 1
D|--------------------------------------------------------------8--|
A|--6-----6-----6---5-----5-----5---6-----6-----6---8-----8--------|
F|----7-7---7-7---7---7-7---7-7---7---7-7---7-7---7---7-7---7-7----|
C|-----------------------------------------------------------------|
G|-----------------------------------------------------------------|
C|-----------------------------------------------------------------|

VERSE:
   GUITAR 1
D|--------------------------------------------------------------8--| x3
A|--6-----6-----6---5-----5-----5---6-----6-----6---8-----8--------|
F|----7-7---7-7---7---7-7---7-7---7---7-7---7-7---7---7-7---7-7----|
C|-----------------------------------------------------------------|
G|-----------------------------------------------------------------|
C|-----------------------------------------------------------------|
 | "Premeditation will kill the trust..."
 |
 | GUITAR 2 (start on..."with every second collecting dust")
D|---------------------------------------------------------| x2
A|---------------------------------------------------------|
F|---------------------------------------------------------|
C|--0~----------------------0~--------0~---------------0~--|
G|---------------------------------------------------------|
C|---------------------------------------------------------|
     With every...collect - ing dust...i feel...wear - y

CHORUS:
   GUITAR 1
D|-----------------------------------------------------| x2
A|--3-3--3-3-3-----------------------------------------|
F|--2-2--2-2-2-----------------------------------------|
C|--0-0--0-0-0---3-3--3-3-3---8-8--8-8-8---5-5--5-5-5--|
G|--0-0--0-0-0---3-3--3-3-3---8-8--8-8-8---5-5--5-5-5--|
C|--0-0--0-0-0---3-3--3-3-3---8-8--8-8-8---5-5--5-5-5--|
 | "she's coming over like a suicide..."
 |
 | GUITAR 2
D|--10-10-10-12-13-12-12-8-8-10-8--8-8\--8--10-10--10-8--3--5-5--5-3-3--| x2
A|--10-10-10-10-10-10-10-8-8-10-8--8-8\--8--10-10--10-8--3--3-3--3-3-3--|
F|----------------------------------------------------------------------|
C|----------------------------------------------------------------------|
G|----------------------------------------------------------------------|
C|----------------------------------------------------------------------|

POST-CHORUS: GUITAR 1
D|--------------------------------------------------------------------|
A|--------------------------------------------------------------------|
F|--------------------------------------------------------------------|
C|------------------------------<5>-----------------------------------|
G|--------------------------<5>------------------------------3h5p3----|
C|--3-0-0-0-3-0-3-0-0-0-3-0----------3-0-0-0-3-0-3-0-0-0-3-0-------3--|

D|--------------------------------------------------------------------|
A|--------------------------------------------------------------------|
F|--------------------------------------------------------------------|
C|------------------------------<5>--------5--------------------------|
G|--------------------------<5>------3--0--3--5s1---------------------|
C|--3-0-0-0-3-0-3-0-0-0-3-0----------3--0-----5s1---------------------|

D|----------------------------------------------------------------|
A|----------------------------------------------------------------|
F|----------------------------------------------------------------|
C|----------------------------5-----------------------------------|
G|--3p0-----3-0-3p0-----3---5----3p0-----3-0-3p0-----3---3h5p3----|
C|--3p0-0-0-3-0-3p0-0-0-3-0------3p0-0-0-3-0-3p0-0-0-3-0-------3--|
   "BAUN!"
D|------------------------------------------------------|
A|------------------------------------------------------|
F|------------------------------------------------------|
C|----------------------------5--------5----------------|
G|--3p0-----3-0-3p0-----3---5----3--0--3--5s1-1-1-1-0~--|
C|--3p0-0-0-3-0-3p0-0-0-3-0------3--0-----5s1-1-1-1-0~--|

VERSE:
   GUITAR 1
D|--------------------------------------------------------------8--| x3
A|--6-----6-----6---5-----5-----5---6-----6-----6---8-----8--------|
F|----7-7---7-7---7---7-7---7-7---7---7-7---7-7---7---7-7---7-7----|
C|-----------------------------------------------------------------|
G|-----------------------------------------------------------------|
C|-----------------------------------------------------------------|
 | "She'll cut you down with a single thrust..."
 |
 | GUITAR 2 (start on..."with every second collecting dust")
D|--------------------------------------------------------------| x2
A|--3~--------------------3~---------3~---------------------3~--|
F|--2~--------------------2~---------2~---------------------2~--|
C|--0~--------------------0~---------0~---------------------0~--|
G|--0~--------------------0~---------0~---------------------0~--|
C|--0~--------------------0~---------0~---------------------0~--|
     She'll cut...a sin - gle thrust..she's taken...quick - ly
     no medication can....the lust....so

   guitar 2 continued
D|---------------------------------------------------------------------------|
A|----------------------------------------------------------5h6p5-------6p5--|
F|--10-----10-----10s12---12s9-----9-----9s10---7-----7-----------7-5--------|
C|-----0-0----0-0-------0------0-0---0-0------0---0-0---0-0-----------7------|
G|---------------------------------------------------------------------------|
C|---------------------------------------------------------------------------|
   "cuz she belongs to heaven"

CHORUS:
   GUITAR 1
D|-----------------------------------------------------| x2
A|--3-3--3-3-3-----------------------------------------|
F|--2-2--2-2-2-----------------------------------------|
C|--0-0--0-0-0---3-3--3-3-3---8-8--8-8-8---5-5--5-5-5--|
G|--0-0--0-0-0---3-3--3-3-3---8-8--8-8-8---5-5--5-5-5--|
C|--0-0--0-0-0---3-3--3-3-3---8-8--8-8-8---5-5--5-5-5--|
 | "she's coming over like a suicide..."
 |
 | GUITAR 2
D|--10-10-10-12-13-12-12-8-8-10-8--8-8\--8--10-10--10-8--3--5-5--5-3-3--| x2
A|--10-10-10-10-10-10-10-8-8-10-8--8-8\--8--10-10--10-8--3--3-3--3-3-3--|
F|----------------------------------------------------------------------|
C|----------------------------------------------------------------------|
G|----------------------------------------------------------------------|
C|----------------------------------------------------------------------|

POST-CHORUS: GUTIAR 1
D|----------------------------------------------------------------|
A|----------------------------------------------------------------|
F|----------------------------------------------------------------|
C|----------------------------5-----------------------------------|
G|--3p0-----3-0-3p0-----3---5----3p0-----3-0-3p0-----3---3h5p3----|
C|--3p0-0-0-3-0-3p0-0-0-3-0------3p0-0-0-3-0-3p0-0-0-3-0-------3--|

D|-------------------------------------------------------------|
A|-------------------------------------------------------------|
F|-------------------------------------------------------------|
C|----------------------------5--------5-----------------------|
G|--3p0-----3-0-3p0-----3---5----3--0--3--5s1--1--1--0~--------|
C|--3p0-0-0-3-0-3p0-0-0-3-0------3--0-----5s1--1--1--0~---x-x--|

BRIDGE: GUITAR 1
  with wah & other effects
D|---------------------x---x-x----------------|
A|---------------------x---x-x-x-----------0--|
F|-------------------------------7-7-7-7-7----|
C|--7s4--4---(4)br---4------------------------|
G|--------------------------------------------|
C|--------------------------------------------|
  "you set me up to fucking fail this time"
D|---------------------------------------|
A|---------------------------------------|
F|--5t--5t--6-6t--7t--7t--5t--7t--7t-8t--|
C|---------------------------------------|
G|---------------------------------------|
C|---------------------------------------|

D|----------------------------------------------------------------------------|
A|----------------------------------------------------------------------------|
F|----------------------------------------------------------------------------|
C|----------------------------------------------------------------------------|
G|--10-12-12-12-12-10-10-10-10-7-7-7-7-5-0-0-3-5-5-5-5-3-0-0-3s5-5-5-5s7-7-7--|
C|--10-12-12-12-12-10-10-10-10-7-7-7-7-5-0-0-3-5-5-5-5-3-0-0-3s5-5-5-5s7-7-7--|

D|--------------------------------------------------------------------------|x3
A|--------------------------------------------------------------------------|
F|--------------------------------------------------------------------------|
C|--10s12-12-12-12s10-10-10-10s7-7-7-7s5-0-0-3s5-5-5-5s3-0-0-3s5-5-5-5s7-7-7|
G|--10s12-12-12-12s10-10-10-10s7-7-7-7s5-0-0-3s5-5-5-5s3-0-0-3s5-5-5-5s7-7-7|
C|--10s12-12-12-12s10-10-10-10s7-7-7-7s5-0-0-3s5-5-5-5s3-0-0-3s5-5-5-5s7-7-7|

CHORUS:
   GUITAR 1
D|-----------------------------------------------------| x4
A|--3-3--3-3-3-----------------------------------------|
F|--2-2--2-2-2-----------------------------------------|
C|--0-0--0-0-0---3-3--3-3-3---8-8--8-8-8---5-5--5-5-5--|
G|--0-0--0-0-0---3-3--3-3-3---8-8--8-8-8---5-5--5-5-5--|
C|--0-0--0-0-0---3-3--3-3-3---8-8--8-8-8---5-5--5-5-5--|
 | "she's coming over like a suicide..."
 |
 | GUITAR 2
D|--10-10-10-12-13-12-12-8-8-10-8--8-8\--8--10-10--10-8--3--5-5--5-3-3--| x2
A|--10-10-10-10-10-10-10-8-8-10-8--8-8\--8--10-10--10-8--3--3-3--3-3-3--|
F|----------------------------------------------------------------------|
C|----------------------------------------------------------------------|
G|----------------------------------------------------------------------|
C|----------------------------------------------------------------------|

on the second time through the chorus, guitar 2 plays this instead of that...
it is played in time with the lyrics

D|---------------------------------------------------------| x2
A|---------------------------------------------------------|
F|---------------------------------------------------------|
C|--7-7-7-7-5-3---3-5----------3-3h5---------3-3h5----3----|
G|--------------5-----3--3-3-3-------3-3-3-3--------5---5--|
C|---------------------------------------------------------|

OUTRO:
   guitar 1
D|--10-10-10-12-12-12-10-/13-13-13-15-15-20-20\--|
A|--10-10-10-10-10-10-10-/13-13-13-13-13---------|
F|---------------------------------------17-17\--|
C|-----------------------------------------------|
G|-----------------------------------------------|
C|-----------------------------------------------|
 |
D|--8-8-8-8-10-10-10-8-3-3-3-3-5-5-5-3--|
A|--8-8-8-8--8--8--8-8-3-3-3-3-3-3-3-3--|
F|--------------------------------------|
C|--------------------------------------|
G|--------------------------------------|
C|--------------------------------------|
 |
D|--10-10-10-12-12-12-10-/13-13-13-15-15-20-20\--|
A|--10-10-10-10-10-10-10-/13-13-13-13-13---------|
F|---------------------------------------17-17\--|
C|-----------------------------------------------|
G|-----------------------------------------------|
C|-----------------------------------------------|
 |
D|--8-8-8-8-10-10-10-8-3-3-3-3-5-5-5-3--|
A|--8-8-8-8--8--8--8-8-3-3-3-3-3-3-3-3--|
F|--------------------------------------|
C|--------------------------------------|
G|--------------------------------------|
C|--------------------------------------|
 |
 |
 | guitar 2
D|----------------------------------------------------------------| x2
A|----------------------------------------------------------------|
F|----------------------------------------------------------------|
C|--0----------10----------------10----------------10--0-0-0-0-1--|
G|--0----------10----------------10----------------10--0-0-0-0-1--|
C|--0--0-10h12-----0-0-0-0-10h12-----0-0-0-0-10h12-----0-0-0-0-1--|
 |
D|----------------------------------------------------------------------| x2
A|----------------------------------------------------------------------|
F|----------------------------------------------------------------------|
C|--0----------10----------------10----------------10--0-0-0-0-1-1-1-1--|
G|--0----------10----------------10----------------10--0-0-0-0-1-1-1-1--|
C|--0--0-10h12-----0-0-0-0-10h12-----0-0-0-0-10h12-----0-0-0-0-1-1-1-1--|

end on:
guitar 2    guitar 1
D|-----|    D|--3--|
A|--3--|    A|--3--|
F|--2--|    F|-----|
C|--0--|    C|-----|
G|--0--|    G|-----|
C|--0--|    C|-----|

===============================================================================
02 - Fake It
Tuning - Drop C
1-D
2-A
3-F
4-C
5-G
6-C

INTRO:none

PRE-CHORUS: GUITAR 1+2
D|-----------------------------------| x4
A|--3-3------------------------------|
F|--2-2-----5-5---5-5-5---5-7---5----|
C|--0-0---0-3-3---3-5-5---5-5---3----|
G|--0-0---0-3-3---3-3-3---3-5-0-3-0--|
C|--0-0---0-3-3-------------5-0-3-0--|

CHORUS: GUITAR 1+2
D|---------------------------------| x3
A|--3-3---3-3-3---3----------------|
F|--2-2---2-2-2---2-5-5---5-5-5-5--|
C|--0-0---0-0-0---0-3-3---3-3-5-5--|
G|--0-0---0-0-0---0-3-3---3-3-3-3--|
C|--0-0---0-0-0---0-3-3---3-3------|

D|-------------------------------------------|
A|--3---3---3--------------------------------|
F|--2---2---2-5---5---5-5---5-5--------------|
C|--0---0---0-3---3---3-5---5-5---5-5---3-3--|
G|--0---0---0-3---3---3-3---3-3---5-5---3-3--|
C|--0---0---0-3---3---3-----------5-5---3-3--|

VERSE: GUITAR 1+2
D|-----------------------------------------------------------------------------|
A|--x-x-3~---x---x--x--x-x-x---x--x--x--x-x-3~---x---x--x--x-x-x---x--x--x--x--|
F|--x-x-2~---x---x--x--x-x-x---x--x--x--x-x-2~---x---x--x--x-x-x---x--x--x--x--|
C|--x-x-0~---x---x--x--x-x-x---x--x--x--x-x-0~---x---x--x--x-x-x---x--x--x--x--|
G|--x-x-0~---x---x--x--x-x-x---x--x--x--x-x-0~---x---x--x--x-x-x---x--x--x--x--|
C|-----------------------------------------------------------------------------|

PRE-CHORUS: GUITAR 1+2
D|-----------------------------------| x4
A|--3-3------------------------------|
F|--2-2-----5-5---5-5-5---5-7---5----|
C|--0-0---0-3-3---3-5-5---5-5---3----|
G|--0-0---0-3-3---3-3-3---3-5-0-3-0--|
C|--0-0---0-3-3-------------5-0-3-0--|

CHORUS: GUITAR 1+2
D|---------------------------------| x3
A|--3-3---3-3-3---3----------------|
F|--2-2---2-2-2---2-5-5---5-5-5-5--|
C|--0-0---0-0-0---0-3-3---3-3-5-5--|
G|--0-0---0-0-0---0-3-3---3-3-3-3--|
C|--0-0---0-0-0---0-3-3---3-3------|

D|-------------------------------------------|
A|--3---3---3--------------------------------|
F|--2---2---2-5---5---5-5---5-5--------------|
C|--0---0---0-3---3---3-5---5-5---5-5---3-3--|
G|--0---0---0-3---3---3-3---3-3---5-5---3-3--|
C|--0---0---0-3---3---3-----------5-5---3-3--|

BRIDGE:
   GUITAR 1
D|---------------20-20-20-20---------------| x2
A|--18-18-18-18---------------18-18-18-18--|
F|-----------------------------------------|
C|-----------------------------------------|
G|-----------------------------------------|
C|-----------------------------------------|
 |
 |
 | GUITAR 2
D|------------------------------------------------------------------------|
A|------------------------------------------------------------------------|
F|---------------2--2--2-2--2--2--2--2--2--9-9-9-7-7-7-12-12-12-14-14-14--|
C|---3--3--3--3--2--2--2-2--2--0--0--0--0---------------------------------|
G|---3--3--3--3--0--0--0-0--0--0--0--0--0--7-7-7-5-5-5-10-10-10-12-12-12--|
C|---3--3--3--3----------------0--0--0--0---------------------------------|
 |
D|---------------------------------------------------------------------------|
A|---------------------------------------------------------------------------|
F|---------------2--2--2-2--2--2--2--2--2--14-14-14-12-12--0-10-10-10-9-9-9--|
C|---3--3--3--3--2--2--2-2--2--0--0--0--0------------------------------------|
G|---3--3--3--3--0--0--0-0--0--0--0--0--0--12-12-12-10-10-10--8--8--8-7-7-7--|
C|---3--3--3--3----------------0--0--0--0------------------------------------|

BRIDGE: SOLO
   GUITAR 1
D|---------------------------------------------------|
A|--5-6-5---------------------5-6-5---------6-8-10\--|
F|--------5-7-5-7-------------------5-7-5-7----------|
C|----------------5-7-5-3----------------------------|
G|------------------------(0)------------------------|
C|---------------------------------------------------|
 |
D|------------------------------------------------------10--|
A|--5-6-5----------------------5-6-5-----6-8-10-8-10-13-----|
F|--------5-7-5-7--------------------5-7--------------------|
C|----------------5-7-5-3-----------------------------------|
G|------------------------(0)-------------------------------|
C|----------------------------------------------------------|
 |
 |
 | GUITAR 2
D|------------------------------------|
A|------------------------------------|
F|------------------------------------|
C|------------------------------------|
G|--x-x-x-x---x-x-x--x-x-x-x---x-x-x--|
C|--x-x-x-x---x-x-x--x-x-x-x---x-x-x--|

BRIDGE:
   GUITAR 1
D|--10-10-10-10-10-10-12b-12b--10-10-10-10-10-10-13-13br--|
A|--------------------------------------------------------|
F|--------------------------------------------------------|
C|--------------------------------------------------------|
G|--------------------------------------------------------|
C|--------------------------------------------------------|
 |
D|--10-10-10-10-10-10-12b-12b--10-10-12-12-13-13-15-15-10~\--|
A|-----------------------------------------------------------|
F|-----------------------------------------------------------|
C|-----------------------------------------------------------|
G|-----------------------------------------------------------|
C|-----------------------------------------------------------|
 |
 |
 | GUITAR 2
D|---------------------------------------------------| x3
A|---------------------------------------------------|
F|--7-7-7-7-7-7-5-5-5-5-5-5--------------------------|
C|--7-7-7-7-7-7-5-5-5-5-5-5-5-5-5-5-5-5-3-3-3-0-0-0--|
G|--5-5-5-5-5-5-3-3-3-3-3-3-5-5-5-5-5-5-3-3-3-0-0-0--|
C|--------------------------5-5-5-5-5-5-3-3-3-0-0-0--|
 |
D|---------------------------------------------------------------|
A|---------------------------------------------------------------|
F|--7-7-7-7-7-7-9-9-9-9-9-9-12-12-12-12-12-12-14-14-14-14-14-14--|
C|--7-7-7-7-7-7-8-8-8-8-8-8-12-12-12-12-12-12-14-14-14-14-14-14--|
G|--5-5-5-5-5-5-7-7-7-7-7-7-10-10-10-10-10-10-12-12-12-12-12-12--|
C|---------------------------------------------------------------|

PRE-CHORUS: GUITAR 1+2
D|-----------------------------------| x3
A|--3-3------------------------------|
F|--2-2-----5-5---5-5-5---5-7---5----|
C|--0-0---0-3-3---3-5-5---5-5---3----|
G|--0-0---0-3-3---3-3-3---3-5-0-3-0--|
C|--0-0---0-3-3-------------5-0-3-0--|

D|-----------------------------------------------------|
A|-----------------------------------------------------|
F|--7-7-7-7-7-7-10-10-10-10-10-10-5-5-5-5-5-5----------|
C|--7-7-7-7-7-7-10-10-10-10-10-10-5-5-5-5-5-5-5---3----|
G|--5-5-5-5-5-5--8--8--8--8--8--8-3-3-3-3-3-3-5-0-3-0--|
C|--0-0-0-0-0-0-------------------------------5-0-3-0--|

CHORUS: GUITAR 1+2
D|---------------------------------| x3
A|--3-3---3-3-3---3----------------|
F|--2-2---2-2-2---2-5-5---5-5-5-5--|
C|--0-0---0-0-0---0-3-3---3-3-5-5--|
G|--0-0---0-0-0---0-3-3---3-3-3-3--|
C|--0-0---0-0-0---0-3-3---3-3------|

D|-------------------------------------------|
A|--3---3---3--------------------------------|
F|--2---2---2-5---5---5-5---5-5--------------|
C|--0---0---0-3---3---3-5---5-5---5-5---3-3--|
G|--0---0---0-3---3---3-3---3-3---5-5---3-3--|
C|--0---0---0-3---3---3-----------5-5---3-3--|

on 2nd time through the chorus, lead guitar replays the solo.  everything
else is still the same

================================================================================
03 - Breakdown
tuning - Drop D, down half step
(the recording sounds a half step lower than written)
1-Eb
2-Bb
3-Gb
4-Db
5-Ab
6-Db

INTRO and VERSE:
    GUITAR 1 (repeat whole thing thrice)
Eb|---------------------------------------------|
Bb|---------------------------------------------|
Gb|----------4---4-4-4--------------------------|
Db|--5--4--0-2---2-2-2-----9-7-4--4--4-4h5-4-0--|
Ab|--2--2--0-2-------2-5-5-0-0-0--0--0-0---0-0--|
Db|--2-----------------5-5-0-----------0---0-0--|
  |
Eb|----------------------------------------------------|
Bb|----------------------------------------------------|
Gb|----------4---4-4-4----------------------12----0-0--|
Db|--5--4--0-2---2-2-2-----9-7-12--12-12h14----14-0-0--|
Ab|--2--2--0-2-------2-5-5-0-0--0------0---------------|
Db|--2-----------------5-5-----------------------------|
  |
  |
  | GUITAR 2       + harmonic feedback at this point
Eb|-----------------------------------------------------------------------|
Bb|-----------------------------------------------------------------------|
Gb|-----------------------------------------------------------------------|
Db|-----------------------------------------------------------------------|
Ab|-----------------------------------------------------------------------|
Db|--2---/---5-5-/-+7---/---12~--\--2--/--5-5-4~---0--2--/--5-5-7--/--12--|
  | (with flanger effect)
Eb|--0--0-0-0--0-0-0-0-0-0-0-0-0-0-0-0-0-0-0-0-0-0-0-0-0-0-0-0-0-0--| x2
Bb|--0--0-0-0--0-0-0-0-0-0-0-0-0-0-3-3-3-3-3-3-3-3-3-3-3-3-3-3-3-3--|
Gb|--0--0-0-0--0-0-0-0-0-0-0-0-0-0-2-2-2-2-2-2-2-2-2-2-2-2-2-2-2-2--|
Db|--2--2-2-2--2-2-2-2-2-2-2-2-2-2-0-0-0-0-0-0-0-0-0-0-0-0-0-0-0-0--|
Ab|--2--2-2-2--2-2-2-2-2-2-2-2-2-2-0-0-0-0-0-0-0-0-0-0-0-0-0-0-0-0--|
Db|--2--2-2-2--2-2-2-2-2-2-2-2-2-2-0-0-0-0-0-0-0-0-0-0-0-0-0-0-0-0--|

CHORUS: GUITAR 1+2
Eb|--3--3-3--3-3-3-3-3--------------------------------| x3
Bb|--3--3-3--3-3-3-3-3--------------------------------|
Gb|--5--5-5--5-5-5-5-5-------------4---4-4-4-4-4-4-4--|
Db|--5--5-5--5-5-5-5-5-----5--4----2---2-2-2-2-2-2-2--|
Ab|--3--3-3--3-3-3-3-3-0-0-2--2--0-2---2-2-2-2-2-2-2--|
Db|--------------------0-0-2-----0-2---2-2-2-2-2-0-0--|
  |
Eb|--0--0-0-0-0--0-0-0-0--0-0--3~--|
Bb|--0--0-0-0-0--0-0-0-0--0-0--3~--|
Gb|--2--2-2-2-2--2-2-2-2--2-2--5~--|
Db|--2--2-2-2-2--2-2-2-2--2-2--5~--|
Ab|--0--0-0-0-0--0-0-0-0--0-0--3~--|
Db|--------------------------------|
    "cuz i'm so much more than meets the eye"

POST-CHORUS:
    GUITAR 1
Eb|---------------------------------------------|
Bb|---------------------------------------------|
Gb|----------4---4-4-4--------------------------|
Db|--5--4--0-2---2-2-2-----9-7-4--4--4-4h5-4-0--|
Ab|--2--2--0-2-------2-5-5-0-0-0--0--0-0---0-0--|
Db|--2-----------------5-5-0-----------0---0-0--|
  |
Eb|----------------------------------------------------|
Bb|----------------------------------------------------|
Gb|----------4---4-4-4----------------------12----0-0--|
Db|--5--4--0-2---2-2-2-----9-7-12--12-12h14----14-0-0--|
Ab|--2--2--0-2-------2-5-5-0-0--0------0---------------|
Db|--2-----------------5-5-----------------------------|
  |
  |
  | GUITAR 2
Eb|------------------------------------------------|
Bb|--7h8p7-----7h8p7-----7h8-7h8s10--8~--7-7~------|
Gb|--------7---------7------------------------7----|
Db|----------9---------9------------------------7--|
Ab|------------------------------------------------|
Db|------------------------------------------------|

VERSE:
    GUITAR 1 (repeat whole thing twice)
Eb|---------------------------------------------|
Bb|---------------------------------------------|
Gb|----------4---4-4-4--------------------------|
Db|--5--4--0-2---2-2-2-----9-7-4--4--4-4h5-4-0--|
Ab|--2--2--0-2-------2-5-5-0-0-0--0--0-0---0-0--|
Db|--2-----------------5-5-0-----------0---0-0--|
  |
Eb|----------------------------------------------------|
Bb|----------------------------------------------------|
Gb|----------4---4-4-4----------------------12----0-0--|
Db|--5--4--0-2---2-2-2-----9-7-12--12-12h14----14-0-0--|
Ab|--2--2--0-2-------2-5-5-0-0--0------0---------------|
Db|--2-----------------5-5-----------------------------|
  |
  |
  | GUITAR 2(with flanger effect)
Eb|--0--0-0-0--0-0-0-0-0-0-0-0-0-0-0-0-0-0-0-0-0-0-0-0-0-0-0-0-0-0--| x4
Bb|--0--0-0-0--0-0-0-0-0-0-0-0-0-0-3-3-3-3-3-3-3-3-3-3-3-3-3-3-3-3--|
Gb|--0--0-0-0--0-0-0-0-0-0-0-0-0-0-2-2-2-2-2-2-2-2-2-2-2-2-2-2-2-2--|
Db|--2--2-2-2--2-2-2-2-2-2-2-2-2-2-0-0-0-0-0-0-0-0-0-0-0-0-0-0-0-0--|
Ab|--2--2-2-2--2-2-2-2-2-2-2-2-2-2-0-0-0-0-0-0-0-0-0-0-0-0-0-0-0-0--|
Db|--2--2-2-2--2-2-2-2-2-2-2-2-2-2-0-0-0-0-0-0-0-0-0-0-0-0-0-0-0-0--|


CHORUS: GUITAR 1+2
Eb|--3--3-3--3-3-3-3-3--------------------------------| x3
Bb|--3--3-3--3-3-3-3-3--------------------------------|
Gb|--5--5-5--5-5-5-5-5-------------4---4-4-4-4-4-4-4--|
Db|--5--5-5--5-5-5-5-5-----5--4----2---2-2-2-2-2-2-2--|
Ab|--3--3-3--3-3-3-3-3-0-0-2--2--0-2---2-2-2-2-2-2-2--|
Db|--------------------0-0-2-----0-2---2-2-2-2-2-0-0--|
  |
Eb|--0--0-0-0-0--0-0-0-0--0-0--3-3-3-3-3-3-3-3-3-3-3-3----------|
Bb|--0--0-0-0-0--0-0-0-0--0-0--3-3-3-3-3-3-3-3-3-3-3-3----------|
Gb|--2--2-2-2-2--2-2-2-2--2-2--5-5-5-5-5-5-5-5-5-5-5-5----------|
Db|--2--2-2-2-2--2-2-2-2--2-2--5-5-5-5-5-5-5-5-5-5-5-5----------|
Ab|--0--0-0-0-0--0-0-0-0--0-0--3-3-3-3-3-3-3-3-3-3-3-3----------|
Db|----------------------------------------------------x-x-x-x--|
  | "cuz i'm so much more than all your..."
Eb|--3--3-3-3-3--3-3-3-3--3-3--0--0-0-0-0--0-0-0-0--0-0--|
Bb|--3--3-3-3-3--3-3-3-3--3-3--0--0-0-0-0--0-0-0-0--0-0--|
Gb|--5--5-5-5-5--5-5-5-5--5-5--0--0-0-0-0--0-0-0-0--0-0--|
Db|--5--5-5-5-5--5-5-5-5--5-5--2--2-2-2-2--2-2-2-2--2-2--|
Ab|--3--3-3-3-3--3-3-3-3--3-3--2--2-2-2-2--2-2-2-2--2-2--|
Db|----------------------------2--2-2-2-2--2-2-2-2--2-2--|
    "...lies!

SOLO:
   GUITAR 1
Eb|--3--3-3--3-3-3-3-3--------------------------------| x3
Bb|--3--3-3--3-3-3-3-3--------------------------------|
Gb|--5--5-5--5-5-5-5-5-------------4---4-4-4-4-4-4-4--|
Db|--5--5-5--5-5-5-5-5-----5--4----2---2-2-2-2-2-2-2--|
Ab|--3--3-3--3-3-3-3-3-0-0-2--2--0-2---2-2-2-2-2-2-2--|
Db|--------------------0-0-2-----0-2---2-2-2-2-2-0-0--|
  |
  |
  | GUITAR 2
Eb|------------------------------------------------|
Bb|--7h8p7-----7h8p7-----7h8-7h8s10--8~--7-7~------|
Gb|--------7---------7------------------------7----|
Db|----------9---------9------------------------7--|
Ab|------------------------------------------------|
Db|------------------------------------------------|
  |
Eb|---------------------------------12-10-7----------10--10s12--12-10-10s12--|
Bb|--7h8p7-----7h8p7-----7h8-7h8s10---------10-10s12-10--10s12--12-10-10s12--|
Gb|--------7---------7-------------------------------------------------------|
Db|----------9---------9-----------------------------------------------------|
Ab|--------------------------------------------------------------------------|
Db|--------------------------------------------------------------------------|

OUTRO: GUITAR 1+2
Eb|--3--3-3--3-3-3-3-3--------------------------------| x5
Bb|--3--3-3--3-3-3-3-3--------------------------------|
Gb|--5--5-5--5-5-5-5-5-------------4---4-4-4-4-4-4-4--|
Db|--5--5-5--5-5-5-5-5-----5--4----2---2-2-2-2-2-2-2--|
Ab|--3--3-3--3-3-3-3-3-0-0-2--2--0-2---2-2-2-2-2-2-2--|
Db|--------------------0-0-2-----0-2---2-2-2-2-2-0-0--|

OUTRO CONTINUED:
    GUITAR 1
Eb|--0--0-0-0-0--0-0-0-0--0-0--3~--|
Bb|--0--0-0-0-0--0-0-0-0--0-0--3~--|
Gb|--2--2-2-2-2--2-2-2-2--2-2--5~--|
Db|--2--2-2-2-2--2-2-2-2--2-2--5~--|
Ab|--0--0-0-0-0--0-0-0-0--0-0--3~--|
Db|--------------------------------|
  |
  |
  | GUITAR 2
Eb|---0--0--0--0--0--0--0-10~--|
Bb|--12-12-12-12-12-10-10--8~--|
Gb|----------------------------|
Db|----------------------------|
Ab|----------------------------|
Db|----------------------------|
    "...so much more than meets the eye"

================================================================================
04 - FMLYHM
tuning - Drop C
1-D
2-A
3-F
4-C
5-G
6-C

VERSE: GUITAR 1
D|----2~--| x3
A|--0-----|
F|--------|
C|--------|
G|--------|
C|--------|
 | "you could have been the real one..."
 |
 |GUITAR 2 COMES IN WITH GUITAR 1
D|-----------------------------------------------------|
A|-----------------------------------------------------|
F|-----------------------------------------------------|
C|---------9\----------9\----------9\----------9\-0-7--|
G|--.-.-.--9\---.-.-.--9\---.-.-.--9\---.-.-.--9\-0-7--|
C|--9-9-9--9\---9-9-9--9\---9-9-9--9\---9-9-9--9\-0-7--|
 | "...me.  You could have been the free one..."

PRE-CHORUS: GUITAR 1
D|-------------------------------------------------------------------|
A|-------------------------------------------------------------------|
F|--------7~-------------4~-------------7~-------------4~------------|
C|------5-----7--------2-----4--------5-----7--------2---------------|
G|----5--------------2--------------5--------------2-------2-2-2-----|
C|--5------------0-2------------0-5------------0-2---------2-2-2--0--|
   "you'll come around when you..."

CHORUS:
   GUITAR 1 (in time with lyrics)
D|---------------------------------------------------| x4
A|--------------3--3--3--3---------------------------|
F|--------------2--2--2--2---------------------------|
C|--9--9--9--9--0--0--0--0--3--3--3--3--2-2-2--2--0--|
G|--9--9--9--9--0--0--0--0--3--3--3--3--2-2-2--2--0--|
C|--9--9--9--9--0--0--0--0--3--3--3--3--2-2-2--2--0--|
 | "fuck........hate........dig.........tear...down"
 |
 | GUITAR 2 (in time with lyrics)
D|--12---14-14---14--------------12---14--14-14-14----------|
A|---------------------15-14--12---------------------15-14--|
F|----------------------------------------------------------|
C|----------------------------------------------------------|
G|----------------------------------------------------------|
C|----------------------------------------------------------|
 | "fuck me like you...me.....tear....dig it up and..me out"
D|--14---14-14---14--------------12---14-14-14---14----------------------2~--|
A|---------------------15-14--12----------------------15---14------12--0-----|
F|--------------------------------------------------------------------14-----|
C|---------------------------------------------------------------------------|
G|---------------------------------------------------------------------------|
C|---------------------------------------------------------------------------|
   "fuck me like you...me.....tear.......i  love the..when you..un-done

VERSE: GUITAR 1
D|----2~--| x3
A|--0-----|
F|--------|
C|--------|
G|--------|
C|--------|
 | "you could have been the real one..."
 |
 |GUITAR 2 COMES IN WITH GUITAR 1
D|-----------------------------------------------------|
A|-----------------------------------------------------|
F|-----------------------------------------------------|
C|---------9\----------9\----------9\----------9\-0-7--|
G|--.-.-.--9\---.-.-.--9\---.-.-.--9\---.-.-.--9\-0-7--|
C|--9-9-9--9\---9-9-9--9\---9-9-9--9\---9-9-9--9\-0-7--|
   "...me.  You could have been the free one..."

PRE-CHORUS: GUITAR 1
D|-------------------------------------------------------------------|
A|-------------------------------------------------------------------|
F|--------7~-------------4~-------------7~-------------4~------------|
C|------5-----7--------2-----4--------5-----7--------2---------------|
G|----5--------------2--------------5--------------2-------2-2-2-----|
C|--5------------0-2------------0-5------------0-2---------2-2-2--0--|
   "you'll come around when you..."

CHORUS:
   GUITAR 1 (in time with lyrics)
D|---------------------------------------------------| x4
A|--------------3--3--3--3---------------------------|
F|--------------2--2--2--2---------------------------|
C|--9--9--9--9--0--0--0--0--3--3--3--3--2-2-2--2--0--|
G|--9--9--9--9--0--0--0--0--3--3--3--3--2-2-2--2--0--|
C|--9--9--9--9--0--0--0--0--3--3--3--3--2-2-2--2--0--|
 | "fuck........hate........dig.........tear...down"
 |
 | GUITAR 2 (in time with lyrics)
D|--12---14-14---14--------------12---14--14-14-14----------|
A|---------------------15-14--12---------------------15-14--|
F|----------------------------------------------------------|
C|----------------------------------------------------------|
G|----------------------------------------------------------|
C|----------------------------------------------------------|
 | "fuck me like you...me.....tear....dig it up and..me out"
D|--14---14-14---14--------------12---14-14-14---14----------------------2~--|
A|---------------------15-14--12----------------------15---14------12--0-----|
F|--------------------------------------------------------------------14-----|
C|---------------------------------------------------------------------------|
G|---------------------------------------------------------------------------|
C|---------------------------------------------------------------------------|
   "fuck me like you...me.....tear.......i  love the..when you..un-done

BRIDGE:
   GUITAR 1 (in time with lyrics)
D|---7b~----------------10b-r--|
A|--10b~----------------13b-r--|
F|-----------------------------|
C|-----------------------------|
G|-----------------------------|
C|-----------------------------|
 |          "you'll nev-er..me"
 |
 | GUITAR 2
D|--------------------------------------------------------------------|
A|--------------------------------------------------------------------|
F|-----------------------------------------------------------------2--|
C|--5-4-2-0---9---9--9-9----------------5-4-2-0---9---9--9-9-------0--|
G|--5-4-2-0-5-7-7-9--9-9-x-x-7-7/12-12--5-4-2-0-5-7-7-9--9-9-x-x-x-0--|
C|--5-4-2-0-----7-9--9-9-x-x-7-7/12-12--5-4-2-0-----7-9--9-9-x-x-x-0--|
 |
D|--------------------------------------------------------2~--|
A|--------------------------------------------------------2~--|
F|--------------------------------------------------------4~--|
C|--5-4-2-0---9---9--9-9----------------5-4-2-0-4-2-0-4-------|
G|--5-4-2-0-5-7-7-9--9-9-x-x-7-7/12-12--5-4-2-0-4-2-0-2-------|
C|--5-4-2-0-----7-9--9-9-x-x-7-7/12-12--5-4-2-0-4-2-0---------|

VERSE: GUITAR 1 (palm mute throughout)
D|---------------------------------------------------------------------------------|
A|---------------------------------------------------------------------------------|
F|---------------------------------------------------------------------------------|
C|---------------------------------------------------------------------------------|
G|--9-9-9-9-9-10-12-10-9-9-9-9-9-9-7-9-10-9-9-9-9-9-9-10-12-10-9-9-9-9-9-9-9-12-7--|
C|--9-9-9-9-9-10-12-10-9-9-9-9-9-9-7-9-10-9-9-9-9-9-9-10-12-10-9-9-9-9-9-9-9-12-7--|
 |
D|-------------------------------------------------------------------------------|
A|-------------------------------------------------------------------------------|
F|-------------------------------------------------------------------------------|
C|-------------------------------------------------------------------------------|
G|--9-9-9-9-9-10-12-10-9-9-9-9-9-9-7-9-10-9-9-9-9-9-9-10-12-10-9-9-9-9-9-9-9-12--|
C|--9-9-9-9-9-10-12-10-9-9-9-9-9-9-7-9-10-9-9-9-9-9-9-10-12-10-9-9-9-9-9-9-9-12--|

PRE-CHORUS: GUITAR 1
D|-------------------------------------------------------------------|
A|-------------------------------------------------------------------|
F|--------7~-------------4~-------------7~-------------4~------------|
C|------5-----7--------2-----4--------5-----7--------2---------------|
G|----5--------------2--------------5--------------2-------2-2-2-----|
C|--5------------0-2------------0-5------------0-2---------2-2-2--0--|


CHORUS:
   GUITAR 1 (in time with lyrics)
D|---------------------------------------------------| x7
A|--------------3--3--3--3---------------------------|
F|--------------2--2--2--2---------------------------|
C|--9--9--9--9--0--0--0--0--3--3--3--3--2-2-2--2--0--|
G|--9--9--9--9--0--0--0--0--3--3--3--3--2-2-2--2--0--|
C|--9--9--9--9--0--0--0--0--3--3--3--3--2-2-2--2--0--|
 | "fuck........hate........dig.........tear...down"
 |
 | GUITAR 2 (in time with lyrics)
D|--12---14-14---14---------------| x7
A|---------------------15-14--12--|
F|--------------------------------|
C|--------------------------------|
G|--------------------------------|
C|--------------------------------|
   "fuck me like you...me.....tear....dig it up and..me out"

OUTRO:
   GUITAR 1 (in time with lyrics)
D|----------------------19---20------20------19~--16-14-12-14-12-10-12-10-8-9~-6~--|
A|------------3--------------------------------------------------------------------|
F|------------2--------------------------------------------------------------------|
C|--9---------0--------------------------------------------------------------------|
G|--9---------0--------------------------------------------------------------------|
C|--9---------0--------------------------------------------------------------------|
 | "..you'll..a-round...find....face-less"
 |
 | GUITAR 2
D|---------------------------------------------|
A|------3--------------------------------------|
F|------2--------------------------------------|
C|--9---0---------------------------------11~--|
G|--9---0---5-2-2-0--0-5-2-2-2--0-5-7-7-7--9~--|
C|--9---0---5-2-2-0--0-5-2-2-2--0-5-7-7-7--9~--|

====================================================================================
05-Fallen
Tuning - Drop C (recording sounds a whole step lower than writen)
1-D
2-A
3-F
4-C
5-G
6-C

INTRO: GUITAR 1+2
D|---------------------------------------------------------------| x2
A|---------------------------------------------------------------|
F|---------------------------------------------------------------|
C|----------------------------------------------------------3h5--|
G|--0--3--5-0-3-5-0--3--5-0-3-5-0--3--5-0-3-5-0--3--5-0-3h5------|
C|--0--3--5-0-----0--3--5-0---5-0--3--5-0-----0--3--5-0----------|

VERSE: GUITAR 1
D|------------------------| x8
A|------------------------|
F|------12h13---------10--|
C|-------0-------------0--|
G|--0-0-------------------|
C|--0-0--------0-10-0-----|

PRE-CHORUS: GUITAR 1+2
D|-------------------------------------------------------------------------------------|
A|-------------------------------------------------------------------------------------|
F|------7-7-7-7-7-7-7s10-10-10-10-10-10-10-10-7-7-7-7-7-7-7-7-10-10-10-10-10-10-10-10--|
C|--5---5-5-5-5-5-5-5s-8--8--8--8--8--8--8--8-5-5-5-5-5-5-5-5-10-10-10-10-10-10-10-10--|
G|--5---5-5-5-5-5-5-5s-8--8--8--8--8--8--8--8-5-5-5-5-5-5-5-5--8--8--8--8--8--8--8--8--|
C|--5---5-5-5-5-5-5-5s-8--8--8--8--8--8--8--8-5-5-5-5-5-5-5-5--8--8--8--8--8--8--8--8--|

CHORUS: GUITAR 1+2
D|---------------------------------------------------------------| x2
A|---------------------------------------------------------------|
F|---------------------------------------------------------------|
C|----------------------------------------------------------3h5--|
G|--0--3--5-0-3-5-0--3--5-0-3-5-0--3--5-0-3-5-0--3--5-0-3h5------|
C|--0--3--5-0-----0--3--5-0---5-0--3--5-0-----0--3--5-0----------|

VERSE: GUITAR 1
D|------------------------| x8
A|------------------------|
F|------12h13---------10--|
C|-------0-------------0--|
G|--0-0-------------------|
C|--0-0--------0-10-0-----|

PRE-CHORUS: GUITAR 1+2
D|-------------------------------------------------------------------------------------|
A|-------------------------------------------------------------------------------------|
F|------7-7-7-7-7-7-7s10-10-10-10-10-10-10-10-7-7-7-7-7-7-7-7-10-10-10-10-10-10-10-10--|
C|--5---5-5-5-5-5-5-5s-8--8--8--8--8--8--8--8-5-5-5-5-5-5-5-5-10-10-10-10-10-10-10-10--|
G|--5---5-5-5-5-5-5-5s-8--8--8--8--8--8--8--8-5-5-5-5-5-5-5-5--8--8--8--8--8--8--8--8--|
C|--5---5-5-5-5-5-5-5s-8--8--8--8--8--8--8--8-5-5-5-5-5-5-5-5--8--8--8--8--8--8--8--8--|

CHORUS: GUITAR 1+2
D|---------------------------------------------------------------| x2
A|---------------------------------------------------------------|
F|---------------------------------------------------------------|
C|----------------------------------------------------------3h5--|
G|--0--3--5-0-3-5-0--3--5-0-3-5-0--3--5-0-3-5-0--3--5-0-3h5------|
C|--0--3--5-0-----0--3--5-0---5-0--3--5-0-----0--3--5-0----------|

SOLO:
   GUITAR 1
D|--0-1----3-----------5-------7----0-1----3-----------5-------7---|
A|----4b---6b---x--x-x-8b---x-10b-----4b---6b---x--x-x-8b---x-10b--|
F|-----------------------------------------------------------------|
C|-----------------------------------------------------------------|
G|-----------------------------------------------------------------|
C|-----------------------------------------------------------------|
 |
D|--10-10-10--12-12-12--13-13-13--15-15-15--17-17-17--20-20-20--15-15-15~--|
A|---8--8--8--10-10-10--11-11-11--13-13-13--15-15-15--18-18-18--13-13-13~--|
F|-------------------------------------------------------------------------|
C|-------------------------------------------------------------------------|
G|-------------------------------------------------------------------------|
C|-------------------------------------------------------------------------|
 |
 |
 | GUITAR 2
D|-------------------------------------------------------| x5
A|-------------------------------------------------------|
F|-------------------------------------------------------|
C|-----.-.-12------.-.-15------.-.-12------.-.-12p11p10--|
G|--0--0-0-12---0--0-0-15---0--0-0-12---0--0-0-12p11p10--|
C|--0--0-0-12---0--0-0-15---0--0-0-12---0--0-0-12p11p10--|

PRE-CHORUS: GUITAR 1+2
D|-------------------------------------------------------------------------------------|
A|-------------------------------------------------------------------------------------|
F|------7-7-7-7-7-7-7s10-10-10-10-10-10-10-10-7-7-7-7-7-7-7-7-10-10-10-10-10-10-10-10--|
C|--5---5-5-5-5-5-5-5s-8--8--8--8--8--8--8--8-5-5-5-5-5-5-5-5-10-10-10-10-10-10-10-10--|
G|--5---5-5-5-5-5-5-5s-8--8--8--8--8--8--8--8-5-5-5-5-5-5-5-5--8--8--8--8--8--8--8--8--|
C|--5---5-5-5-5-5-5-5s-8--8--8--8--8--8--8--8-5-5-5-5-5-5-5-5--8--8--8--8--8--8--8--8--|

INTERLUDE: GUITAR 1+2
D|----------------------------------------|
A|----------------------------------------|
F|--10~-(this is the last-----------------|
C|--10~- note from the-----------.-.-.-.--|
G|---8~--pre-chorus held out)----0-0-0-0--|
C|---8~--------------------------0-0-0-0--|

CHORUS: GUITAR 1+2
D|---------------------------------------------------------------| x2
A|---------------------------------------------------------------|
F|---------------------------------------------------------------|
C|----------------------------------------------------------3h5--|
G|--0--3--5-0-3-5-0--3--5-0-3-5-0--3--5-0-3-5-0--3--5-0-3h5------|
C|--0--3--5-0-----0--3--5-0---5-0--3--5-0-----0--3--5-0----------|

OUTRO:
   GUITAR 1
D|---------------------------------------------------------------| x2
A|---------------------------------------------------------------|
F|---------------------------------------------------------------|
C|----------------------------------------------------------3h5--|
G|--0--3--5-0-3-5-0--3--5-0-3-5-0--3--5-0-3-5-0--3--5-0-3h5------|
C|--0--3--5-0-----0--3--5-0---5-0--3--5-0-----0--3--5-0----------|
 |
 |
 | GUITAR 2

Guitar 2 ad lib's something similar to the Guitar 1 solo, then ends with a
fade out on this note:

D|------|
A|------|
F|------|
C|--0~--|
G|--0~--|
C|--0~--|

===========================================================================================
06 - Rise Above This
Tuning - Drop D, down half step (recording sounds a half step lower than
written)
1-Eb
2-Bb
3-Gb
4-Db
5-Ab
6-Db

INTRO:
    GUITAR 1
Eb|---------------------------------------------------------------------------------------|
Bb|---------------------------------------------------------------------------------------|
Gb|--11-11-11-11-11-11-11-11-9-9-9-7-7-7-14s11-11-11-11-11-11-11-11-11-9-9-9-7-7-7-14s12--|
Db|---------------------------------------------------------------------------------------|
Ab|---9--9--9--9--9--9--9--9-7-7-7-5-5-5-12s-9--9--9--9--9--9--9--9--9-7-7-7-5-5-5-12s10--|
Db|---------------------------------------------------------------------------------------|
  |
Eb|-----------------------------------------------------------------------------------------|
Bb|-----------------------------------------------------------------------------------------|
Gb|--12-12-12-12-12-12-12-12-11-11-11-9-9-14s12-12-12-12-12-12-12-12-12-11-11-11-9-9s14-14--|
Db|-----------------------------------------------------------------------------------------|
Ab|--10-10-10-10-10-10-10-10--9--9--9-7-7-12s10-10-10-10-10-10-10-10-10--9--9--9-7-7s12-12--|
Db|-----------------------------------------------------------------------------------------|
  |
  |
  | GUITAR 2
Eb|------0-0--| x8   Eb|------3-3--| x8
Bb|------3-3--|      Bb|------3-3--|
Gb|------2-2--|      Gb|------0-0--|
Db|------0-0--|      Db|-----------|
Ab|--0-0------|      Ab|--5-5------|
Db|--0-0------|      Db|--5-5------|

VERSE:
    GUITAR 1 (in time with lyrics)(im not sure if it repeats or not)
Eb|--------------------------------------------------|
Bb|--------------------------------------------------|
Gb|--6-----7~---------6------9--7-----7-7-7-7-6-6----|
Db|--------------------------------------------------|
Ab|--4-----5~---------4------7--5-----5-5-5-5-4-4p0--|
Db|-----------------------------0--------------------|
  | "take..light..dark-en ev-ry-thing around me"
  |
  | GUITAR 2
Eb|--0--0--0-0--0--0-0-0-0-0-0-0--0--0--0-0--0--0-0-0-0-0-0-0--|
Bb|--2--2--2-2--3--3-3-3-3-3-3-3--2--2--2-2--3--3-3-3-3-3-3-3--|
Gb|--2--2--2-2--2--2-2-2-2-2-2-2--2--2--2-2--2--2-2-2-2-2-2-2--|
Db|--0--0--0-0--0--0-0-0-0-0-0-0--0--0--0-0--0--0-0-0-0-0-0-0--|
Ab|-------------0--0-0-0-0-0-0-0-------------0--0-0-0-0-0-0-0--|
Db|-------------0--0-0-0-0-0-0-0-------------0--0-0-0-0-0-0-0--|
  |
Eb|--3--3--3-3-------------3-3-3--3--3--3-3-------------3-3-3--|
Bb|--3--3--3-3--4--4-4-4-4-3-3-3--3--3--3-3--4--4-4-4-4-3-3-3--|
Gb|--0--0--0-0--3--3-3-3-3-0-0-0--0--0--0-0--3--3-3-3-3-0-0-0--|
Db|--0--0--0-0--0--0-0-0-0-0-0-0--0--0--0-0--0--0-0-0-0-0-0-0--|
Ab|--0--0--0-0-------------0-0-0--0--0--0-0-------------0-0-0--|
Db|--5--5--5-5--6--6-6-6-6-5-5-5--5--5--5-5--6--6-6-6-6-5-5-5--|

CHORUS:
    GUITAR 1
Eb|---------------------------------------------------------------------------------------|
Bb|---------------------------------------------------------------------------------------|
Gb|--11-11-11-11-11-11-11-11-9-9-9-7-7-7-14s11-11-11-11-11-11-11-11-11-9-9-9-7-7-7-14s12--|
Db|---------------------------------------------------------------------------------------|
Ab|---9--9--9--9--9--9--9--9-7-7-7-5-5-5-12s-9--9--9--9--9--9--9--9--9-7-7-7-5-5-5-12s10--|
Db|---------------------------------------------------------------------------------------|
  |
Eb|-----------------------------------------------------------------------------------------|
Bb|-----------------------------------------------------------------------------------------|
Gb|--12-12-12-12-12-12-12-12-11-11-11-9-9-14s12-12-12-12-12-12-12-12-12-11-11-11-9-9s14-14--|
Db|-----------------------------------------------------------------------------------------|
Ab|--10-10-10-10-10-10-10-10--9--9--9-7-7-12s10-10-10-10-10-10-10-10-10--9--9--9-7-7s12-12--|
Db|-----------------------------------------------------------------------------------------|
  |
  |
  | GUITAR 2
Eb|------0-0--| x8   Eb|------3-3--| x8
Bb|------3-3--|      Bb|------3-3--|
Gb|------2-2--|      Gb|------0-0--|
Db|------0-0--|      Db|-----------|
Ab|--0-0------|      Ab|--5-5------|
Db|--0-0------|      Db|--5-5------|

VERSE:
    GUITAR 1 (in time with lyrics)(im not sure if it repeats or not)
Eb|--------------------------------------------------|
Bb|--------------------------------------------------|
Gb|--6-----7~---------6------9--7-----7-7-7-7-6-6----|
Db|--------------------------------------------------|
Ab|--4-----5~---------4------7--5-----5-5-5-5-4-4p0--|
Db|-----------------------------0--------------------|
  | "hate..mind.....re-grets be-ter...unspoken"
  |
Eb|----------------------------------------------------------17br-14-15-14----14-------17br-14-|
Bb|------------------------------------------------------------------------15----15------------|
Gb|--2s14-------------------14-16---------------------------------------------------14---------|
Db|-------14-16-14-12-12-11-------14-16-16-16-16-16-14-12--------------------------------------|
Ab|-------------------------------------------------------12-----------------------------------|
Db|--------------------------------------------------------------------------------------------|
  |
Eb|--15-14-----------|
Bb|--------15----15--|
Gb|-----------14-----|
Db|------------------|
Ab|------------------|
Db|------------------|
  |
  | GUITAR 2 (repeat entire thing twice)
Eb|--0--0--0-0--0--0-0-0-0-0-0-0--0--0--0-0--0--0-0-0-0-0-0-0--|
Bb|--2--2--2-2--3--3-3-3-3-3-3-3--2--2--2-2--3--3-3-3-3-3-3-3--|
Gb|--2--2--2-2--2--2-2-2-2-2-2-2--2--2--2-2--2--2-2-2-2-2-2-2--|
Db|--0--0--0-0--0--0-0-0-0-0-0-0--0--0--0-0--0--0-0-0-0-0-0-0--|
Ab|-------------0--0-0-0-0-0-0-0-------------0--0-0-0-0-0-0-0--|
Db|-------------0--0-0-0-0-0-0-0-------------0--0-0-0-0-0-0-0--|
  |
Eb|--3--3--3-3-------------3-3-3--3--3--3-3-------------3-3-3--|
Bb|--3--3--3-3--4--4-4-4-4-3-3-3--3--3--3-3--4--4-4-4-4-3-3-3--|
Gb|--0--0--0-0--3--3-3-3-3-0-0-0--0--0--0-0--3--3-3-3-3-0-0-0--|
Db|--0--0--0-0--0--0-0-0-0-0-0-0--0--0--0-0--0--0-0-0-0-0-0-0--|
Ab|--0--0--0-0-------------0-0-0--0--0--0-0-------------0-0-0--|
Db|--5--5--5-5--6--6-6-6-6-5-5-5--5--5--5-5--6--6-6-6-6-5-5-5--|

CHORUS:
    GUITAR 1
Eb|---------------------------------------------------------------------------------------|
Bb|---------------------------------------------------------------------------------------|
Gb|--11-11-11-11-11-11-11-11-9-9-9-7-7-7-14s11-11-11-11-11-11-11-11-11-9-9-9-7-7-7-14s12--|
Db|---------------------------------------------------------------------------------------|
Ab|---9--9--9--9--9--9--9--9-7-7-7-5-5-5-12s-9--9--9--9--9--9--9--9--9-7-7-7-5-5-5-12s10--|
Db|---------------------------------------------------------------------------------------|
  |
Eb|-----------------------------------------------------------------------------------------|
Bb|-----------------------------------------------------------------------------------------|
Gb|--12-12-12-12-12-12-12-12-11-11-11-9-9-14s12-12-12-12-12-12-12-12-12-11-11-11-9-9s14-14--|
Db|-----------------------------------------------------------------------------------------|
Ab|--10-10-10-10-10-10-10-10--9--9--9-7-7-12s10-10-10-10-10-10-10-10-10--9--9--9-7-7s12-12--|
Db|-----------------------------------------------------------------------------------------|
  |
  |
  | GUITAR 2
Eb|------0-0--| x8   Eb|------3-3--| x8
Bb|------3-3--|      Bb|------3-3--|
Gb|------2-2--|      Gb|------0-0--|
Db|------0-0--|      Db|-----------|
Ab|--0-0------|      Ab|--5-5------|
Db|--0-0------|      Db|--5-5------|

SOLO:
    GUITAR 1
Eb|------------------------------------------------17br-14h15p14-------17br-14h15p14-----------|
Bb|--------------------------------------------------------------15------------------15b-15r~--|
Gb|--2/14----------------14-(14)s16---------------------------------14-------------------------|
Db|-------14-16-14s12-12------------14h16-16-14-12---------------------------------------------|
Ab|--------------------------------------------------------------------------------------------|
Db|--------------------------------------------------------------------------------------------|
  |
  |
  | GUITAR 2
Eb|--0--0--0-0--0--0-0-0-0-0-0-0--0--0--0-0--0--0-0-0-0-0-0-0--|
Bb|--2--2--2-2--3--3-3-3-3-3-3-3--2--2--2-2--3--3-3-3-3-3-3-3--|
Gb|--2--2--2-2--2--2-2-2-2-2-2-2--2--2--2-2--2--2-2-2-2-2-2-2--|
Db|--0--0--0-0--0--0-0-0-0-0-0-0--0--0--0-0--0--0-0-0-0-0-0-0--|
Ab|-------------0--0-0-0-0-0-0-0-------------0--0-0-0-0-0-0-0--|
Db|-------------0--0-0-0-0-0-0-0-------------0--0-0-0-0-0-0-0--|
  |
Eb|--3--3--3-3-------------3-3-3--3--3--3-3-------------3-3-3--|
Bb|--3--3--3-3--4--4-4-4-4-3-3-3--3--3--3-3--4--4-4-4-4-3-3-3--|
Gb|--0--0--0-0--3--3-3-3-3-0-0-0--0--0--0-0--3--3-3-3-3-0-0-0--|
Db|--0--0--0-0--0--0-0-0-0-0-0-0--0--0--0-0--0--0-0-0-0-0-0-0--|
Ab|--0--0--0-0-------------0-0-0--0--0--0-0-------------0-0-0--|
Db|--5--5--5-5--6--6-6-6-6-5-5-5--5--5--5-5--6--6-6-6-6-5-5-5--|

BRIDGE: GUITAR 1
Eb|---------------------------------------------------------------------|
Bb|---------------------------------------------------------------------|
Gb|---------------------------------------------------------------------|
Db|--4-4-4-4-4-4-4-4-5-5-5-4-4-4-----5-4-4-4-4-4-4-4-4-5-5-5-5-7-7------|
Ab|--5-5-5-5-5-5-5-5-4-4-4-5-5-5-5s7-7-5-5-5-5-5-5-5-5-4-4-4-5-5-5-7-7--|
Db|----------------------------------------------------------------7-7--|
  |
Eb|-----------------------------------------------------------------|
Bb|-----------------------------------------------------------------|
Gb|-----------------------------------------------------------------|
Db|------------------------6-6-6-----------------------7-7-7-5-5-5--|
Ab|--5-5-5-5-5-5-5-5-5-5-5-4-4-4-5s7-7-5-5-5-5-5-5-5-5-5-5-5-4-4-4--|
Db|--5-5-5-5-5-5-5-0-0-0-0-------5s7-7-5-5-5-5-5-5-5-0-0------------|

CHORUS:
    GUITAR 1
Eb|---------------------------------------------------------------------------------------|
Bb|---------------------------------------------------------------------------------------|
Gb|--11-11-11-11-11-11-11-11-9-9-9-7-7-7-14s11-11-11-11-11-11-11-11-11-9-9-9-7-7-7-14s12--|
Db|---------------------------------------------------------------------------------------|
Ab|---9--9--9--9--9--9--9--9-7-7-7-5-5-5-12s-9--9--9--9--9--9--9--9--9-7-7-7-5-5-5-12s10--|
Db|---------------------------------------------------------------------------------------|
  |
Eb|-----------------------------------------------------------------------------------------|
Bb|-----------------------------------------------------------------------------------------|
Gb|--12-12-12-12-12-12-12-12-11-11-11-9-9-14s12-12-12-12-12-12-12-12-12-11-11-11-9-9s14-14--|
Db|-----------------------------------------------------------------------------------------|
Ab|--10-10-10-10-10-10-10-10--9--9--9-7-7-12s10-10-10-10-10-10-10-10-10--9--9--9-7-7s12-12--|
Db|-----------------------------------------------------------------------------------------|
  |
Eb|---------------------------------------------------------------|
Bb|---------------------------------------------------------------|
Gb|--11---9-9s14-14-14-12-12-12-12-12-12-12-12-11---9-9s14-14-14--|
Db|---------------------------------------------------------------|
Ab|---9---7-7s12-12-12-10-10-10-10-10-10-10-10--9---7-7s12-12-12--|
Db|---------------------------------------------------------------|
  | "rise above this, rise above this, rise above this doubt"
  |
  | GUITAR 2
Eb|------0-0--| x8   Eb|------3-3--| x8
Bb|------3-3--|      Bb|------3-3--|
Gb|------2-2--|      Gb|------0-0--|
Db|------0-0--|      Db|-----------|
Ab|--0-0------|      Ab|--5-5------|
Db|--0-0------|      Db|--5-5------|
  |
Eb|--3-3-3-3-3-3-3-3-3-3-3-3-3-3-3-3-3-3-3-3-3-3-3-3--|
Bb|--3-3-3-3-3-3-3-3-3-3-3-3-3-3-3-3-3-3-3-3-3-3-3-3--|
Gb|--0-0-0-0-0-0-0-0-0-0-0-0-0-0-0-0-0-0-0-0-0-0-0-0--|
Db|--0-0-0-0-0-0-0-0-0-0-0-0-0-0-0-0-0-0-0-0-0-0-0-0--|
Ab|--5-5-5-5-5-5-5-5-5-5-5-5-5-5-5-5-5-5-5-5-5-5-5-5--|
Db|--5-5-5-5-5-5-5-5-5-5-5-5-5-5-5-5-5-5-5-5-5-5-5-5--|
    "rise above this, rise above this, rise above this doubt"

OUTRO: GUITAR 1
Eb|-------------------------------------------------| x4 and fade out
Bb|-------------------------------------------------|
Gb|--11-11-11-11-11-11-11-11-9-9-9-7-7-7-s14s11-11--|
Db|-------------------------------------------------|
Ab|---9--9--9--9--9--9--9--9-7-7-7-5-5-5-s12s-9--9--|
Db|-------------------------------------------------|

================================================================================================
07 - No Jesus Christ
Tuning - Drop C (recording sounds a whole step lower than written)
1-D
2-A
3-F
4-C
5-G
6-C

VERSE: GUITAR 1
D|--8s10-10s8-8s11-11-10--10-10s8-8s11-10--|--15s17-17s15-15s18-18-17-17b-17-17s15-17s18-18-\--|
A|--------------------12---------------12--|---------------------------------------------------|
F|-----------------------------------------|--------------------15-----------------------15-\--|
C|-----------------------------------------|---------------------------------------------------|
G|-----------------------------------------|---------------------------------------------------|
C|-----------------------------------------|---------------------------------------------------|
 |
D|-------------------------------------------------| x7
A|-------------------------------------------------|
F|-------------------------------------------------|
C|---------------------------------------------15--|
G|--0-0-12p10h12-0-0-12p10h12-0-0-12p10h12-0-0-15--|
C|--0-0-12p10h12-0-0-12p10h12-0-0-12p10h12-0-0-15--|
 |
D|----------------------------------------------------|
A|----------------------------------------------------|
F|----------------------------------------------------|
C|----------------------------------------------------|
G|--0-0-12p10h12-0-0-12p10h12-0-0-12p10h12-10p8----8--|
C|--0-0-12p10h12-0-0-12p10h12-0-0-12p10h12------10----|

BRIDGE: GUITAR 1
D|--0------------0-------------------| x2
A|--3------------3-------------------|
F|--2---5--------2---5---------------|
C|--0---3--x-x---0---3--x-x-------3--|
G|--0---3--x-x---0---3--x-x-0h3h5----|
C|--0---3--x-x---0---3--x-x----------|

INTERLUDE: GUITAR 1
D|-------------------------------------------------| x7
A|-------------------------------------------------|
F|-------------------------------------------------|
C|---------------------------------------------15--|
G|--0-0-12p10h12-0-0-12p10h12-0-0-12p10h12-0-0-15--|
C|--0-0-12p10h12-0-0-12p10h12-0-0-12p10h12-0-0-15--|
 |
D|----------------------------------------------------|
A|----------------------------------------------------|
F|----------------------------------------------------|
C|----------------------------------------------------|
G|--0-0-12p10h12-0-0-12p10h12-0-0-12p10h12-10p8----8--|
C|--0-0-12p10h12-0-0-12p10h12-0-0-12p10h12------12----|

CHORUS: (repeat entire chorus twice)
   GUITAR 1
D|--10-10-10-10-10-10-10-10-10-10-10-10-10-10-10-10-10-10-10-10-10-10-10-10--|
F|---------------------------------------------------------------------------|
C|---7--7--7--7--7--7--7--7--7--7--7--7--7--7--7--7--7--7--7--7--7--7--7--7--|
G|---------------------------------------------------------------------------|
C|---------------------------------------------------------------------------|
 |
D|--8-8-8-8-8-8-8-8-8-8-8-8-8-8-8-8-8-8-8-8-8-8-8-8-6-6-6-6-6-6-6-6-6-6-6-6-6-6-6-6-6-6-6-6-6-6-6-6|
A|-------------------------------------------------------------------------------------------------|
F|--5-5-5-5-5-5-5-5-5-5-5-5-5-5-5-5-5-5-5-5-5-5-5-5-3-3-3-3-3-3-3-3-3-3-3-3-3-3-3-3-3-3-3-3-3-3-3-3|
C|-------------------------------------------------------------------------------------------------|
G|-------------------------------------------------------------------------------------------------|
C|-------------------------------------------------------------------------------------------------|
 |
D|--5-5-5-5-5-5-5-5-5-5-5-5-5-5-5-5-5-5-8-8-8-8-8-8--|
A|---------------------------------------------------|
F|--2-2-2-2-2-2-2-2-2-2-2-2-2-2-2-2-2-2-5-5-5-5-5-5--|
C|---------------------------------------------------|
G|---------------------------------------------------|
C|---------------------------------------------------|
 |
 |
 | GUITAR 2
D|---------------------------------------------------------------------------|
A|---------------------------------------------------------------------------|
F|--------------------------------------------------------10-10-10-12-12-12--|
C|--12-12-12-12-12-12-12-12-12-12-12-12-12-12-12-12-12-12-10-10-10-12-12-12--|
G|--12-12-12-12-12-12-12-12-12-12-12-12-12-12-12-12-12-12--8--8--8-10-10-10--|
C|--12-12-12-12-12-12-12-12-12-12-12-12-12-12-12-12-12-12--------------------|
 |
D|---------------------------------------------------------------------------|
A|---------------------------------------------------------------------------|
F|-----------------------------------------------------------------10-10-10--|
C|--10-10-10-10-10-10-10-10-10-10-10-10-10-10-10-10-10-10-10-10-10-10-10-10--|
G|--10-10-10-10-10-10-10-10-10-10-10-10-10-10-10-10-10-10-10-10-10--8--8--8--|
C|--10-10-10-10-10-10-10-10-10-10-10-10-10-10-10-10-10-10-10-10-10-----------|
 |
D|---------------------------------------------------------------------------------------|
A|---------------------------------------------------------------------------------------|
F|--------------------------------------7-7-7-9-9-9--------------------------------------|
C|--8-8-8-8-8-8-8-8-8-8-8-8-8-8-8-8-8-8-7-7-7-9-9-9-7-7-7-7-7-7-7-7-7-7-7-7-7-7-7-7-7-7--|
G|--8-8-8-8-8-8-8-8-8-8-8-8-8-8-8-8-8-8-5-5-5-7-7-7-7-7-7-7-7-7-7-7-7-7-7-7-7-7-7-7-7-7--|
C|--8-8-8-8-8-8-8-8-8-8-8-8-8-8-8-8-8-8-------------7-7-7-7-7-7-7-7-7-7-7-7-7-7-7-7-7-7--|
 |
D|---------------------|
A|---------------------|
F|---------------------|
C|--10-10-10-10-10-10--|
G|--10-10-10-10-10-10--|
C|--10-10-10-10-10-10--|

VERSE: GUITAR 1
D|--------------10-----------10--|
A|-------------------------------|
F|--5s7-7s5-5s8--8-7-7s5-5s8--8--|
C|-------------------------------|
G|-------------------------------|
C|-------------------------------|

CHORUS: (repeat entire chorus 4 times)
   GUITAR 1
D|--10-10-10-10-10-10-10-10-10-10-10-10-10-10-10-10-10-10-10-10-10-10-10-10--|
F|---------------------------------------------------------------------------|
C|---7--7--7--7--7--7--7--7--7--7--7--7--7--7--7--7--7--7--7--7--7--7--7--7--|
G|---------------------------------------------------------------------------|
C|---------------------------------------------------------------------------|
 |
D|--8-8-8-8-8-8-8-8-8-8-8-8-8-8-8-8-8-8-8-8-8-8-8-8-6-6-6-6-6-6-6-6-6-6-6-6-6-6-6-6-6-6-6-6-6-6-6-6|
A|-------------------------------------------------------------------------------------------------|
F|--5-5-5-5-5-5-5-5-5-5-5-5-5-5-5-5-5-5-5-5-5-5-5-5-3-3-3-3-3-3-3-3-3-3-3-3-3-3-3-3-3-3-3-3-3-3-3-3|
C|-------------------------------------------------------------------------------------------------|
G|-------------------------------------------------------------------------------------------------|
C|-------------------------------------------------------------------------------------------------|
 |
D|--5-5-5-5-5-5-5-5-5-5-5-5-5-5-5-5-5-5-8-8-8-8-8-8--|
A|---------------------------------------------------|
F|--2-2-2-2-2-2-2-2-2-2-2-2-2-2-2-2-2-2-5-5-5-5-5-5--|
C|---------------------------------------------------|
G|---------------------------------------------------|
C|---------------------------------------------------|
 |
 |
 | GUITAR 2
D|---------------------------------------------------------------------------|
A|---------------------------------------------------------------------------|
F|--------------------------------------------------------10-10-10-12-12-12--|
C|--12-12-12-12-12-12-12-12-12-12-12-12-12-12-12-12-12-12-10-10-10-12-12-12--|
G|--12-12-12-12-12-12-12-12-12-12-12-12-12-12-12-12-12-12--8--8--8-10-10-10--|
C|--12-12-12-12-12-12-12-12-12-12-12-12-12-12-12-12-12-12--------------------|
 |
D|---------------------------------------------------------------------------|
A|---------------------------------------------------------------------------|
F|-----------------------------------------------------------------10-10-10--|
C|--10-10-10-10-10-10-10-10-10-10-10-10-10-10-10-10-10-10-10-10-10-10-10-10--|
G|--10-10-10-10-10-10-10-10-10-10-10-10-10-10-10-10-10-10-10-10-10--8--8--8--|
C|--10-10-10-10-10-10-10-10-10-10-10-10-10-10-10-10-10-10-10-10-10-----------|
 |
D|---------------------------------------------------------------------------------------|
A|---------------------------------------------------------------------------------------|
F|--------------------------------------7-7-7-9-9-9--------------------------------------|
C|--8-8-8-8-8-8-8-8-8-8-8-8-8-8-8-8-8-8-7-7-7-9-9-9-7-7-7-7-7-7-7-7-7-7-7-7-7-7-7-7-7-7--|
G|--8-8-8-8-8-8-8-8-8-8-8-8-8-8-8-8-8-8-5-5-5-7-7-7-7-7-7-7-7-7-7-7-7-7-7-7-7-7-7-7-7-7--|
C|--8-8-8-8-8-8-8-8-8-8-8-8-8-8-8-8-8-8-------------7-7-7-7-7-7-7-7-7-7-7-7-7-7-7-7-7-7--|
 |
D|---------------------|
A|---------------------|
F|---------------------|
C|--10-10-10-10-10-10--|
G|--10-10-10-10-10-10--|
C|--10-10-10-10-10-10--|

OUTRO: GUITAR 1
D|-------------------------------------------------------------------------------------------|x7
A|--------------10----------------------8-----------------6-------------------5---5h6p5------|
F|----------------------------------------------------------------------------------------5--|
C|-----12----------12----------10---------10--------8-------8---8---------7-----7-------7----|
G|--------12----------12----------10---------10-------8-------8---8-----7---7----------------|
C|--12-------12----------12-10-------10---------0-8-----8-----------0-7----------------------|

END ON:
D|-----|
A|-----|
F|-----|
C|--0--|
G|--0--|
C|--0--|

===================================================================================================
08 - Six Gun Quota
Tuning - Drop D, down half step (recording sounds half step lower than
written)
1-Eb
2-Bb
3-Gb
4-Db
5-Ab
6-Db

INTRO: GUITAR 1+2
Eb|--------------------------------------------------------| x2
Bb|--3--3-3---------------------3--3-3---------------------|
Gb|--2--2-1----5--5-5---4s5-4---2--2-1----5--5-5---4s5-10--|
Db|--0--0-0--0--------0-------0-0--0-0--0--------0---------|
Ab|--0--0-0--0-3--3-3-0-2s3-2-0-0--0-0--0-3--3-3-0-2s3--8--|
Db|--0--0-0-------------------0-0--0-0---------------------|

VERSE: GUITAR 1 (in time with lyrics)
Eb|----0~---------0-----0~--| x2
Bb|----3~--------10\----3~--|
Gb|----2~---------9\----2~--|
Db|----0~---------------0~--|
Ab|----0~---------------0~--|
Db|----0~---------------0~--|
  | "..found..all..choic - es
  | GUITAR 1+2
Eb|----------------------------------------------------------|
Bb|--6--6-6-6--6-6--6-6-6-6-6-6-6-3--3-3---------------------|
Gb|--5--5-5-5--5-5--5-5-5-5-5-5-5-2--2-1----5--5-5---4s5-10--|
Db|--3--3-3-3--3-3--3-3-3-3-3-3-3-0--0-0--0--------0---------|
Ab|--3--3---3--3------3---3---3---0--0-0--0-3--3-3-0-2s3--8--|
Db|--3--3---3--3------3---3---3---0--0-0---------------------|
  |
Eb|------------------------------------------------------|
Bb|--6--6-6-6--6-6--6-6-6-6-6-6-6-3--3-3-----------------|
Gb|--5--5-5-5--5-5--5-5-5-5-5-5-5-2--2-1----5-(5)b----0--|
Db|--3--3-3-3--3-3--3-3-3-3-3-3-3-0--0-0--0---------0-0--|
Ab|--3--3---3--3------3---3---3---0--0-0--0-3-(3)b--0-0--|
Db|--3--3---3--3------3---3---3---0--0-0-----------------|

CHORUS:
    GUITAR 1 (in time with lyrics)
Eb|------------------------------------------------12----10\--|
Bb|--------------8b------------------------8b-----------------|
Gb|--7-----7----------9------7---7-7--------------------------|
Db|-----------------------------------------------------------|
Ab|-----------------------------------------------------------|
Db|-----------------------------------------------------------|
  | ".i've burned.....found, now i limit my-self...quo - ta"
  |
  | GUITAR 2
Eb|----------------------------------------------------------------------|
Bb|--3---3-3-3-3-3-3-----------------------------------------------------|
Gb|--2---2-2-2-2-2-2-5---5-5-5-5-5-5-5---5-5-5-5-5-5-7---7-7s10---10-10--|
Db|--0---0-0-0-0-0-0-3---3-3-3-3-3-3-3---3-3-3-3-3-3---------------------|
Ab|--0---0---0---0---3---3-3-3-3-3-3-3---3-3-3-3-3-3-5---5-5s-8----8--8--|
Db|--0---0---0---0---3---3---3---3---------------------------------------|

VERSE: GUITAR 1 (in time with lyrics)
Eb|----0~---------0-----0~--| x2
Bb|----3~--------10\----3~--|
Gb|----2~---------9\----2~--|
Db|----0~---------------0~--|
Ab|----0~---------------0~--|
Db|----0~---------------0~--|
  | "..found..all..choic - es
  | GUITAR 1+2
Eb|----------------------------------------------------------|
Bb|--6--6-6-6--6-6--6-6-6-6-6-6-6-3--3-3---------------------|
Gb|--5--5-5-5--5-5--5-5-5-5-5-5-5-2--2-1----5--5-5---4s5-10--|
Db|--3--3-3-3--3-3--3-3-3-3-3-3-3-0--0-0--0--------0---------|
Ab|--3--3---3--3------3---3---3---0--0-0--0-3--3-3-0-2s3--8--|
Db|--3--3---3--3------3---3---3---0--0-0---------------------|
  |
Eb|------------------------------------------------------|
Bb|--6--6-6-6--6-6--6-6-6-6-6-6-6-3--3-3-----------------|
Gb|--5--5-5-5--5-5--5-5-5-5-5-5-5-2--2-1----5-(5)b----0--|
Db|--3--3-3-3--3-3--3-3-3-3-3-3-3-0--0-0--0---------0-0--|
Ab|--3--3---3--3------3---3---3---0--0-0--0-3-(3)b--0-0--|
Db|--3--3---3--3------3---3---3---0--0-0-----------------|

CHORUS:(repeat entire chorus twice)
    GUITAR 1 (in time with lyrics)
Eb|------------------------------------------------12----10\--|
Bb|--------------8b------------------------8b-----------------|
Gb|--7-----7----------9------7---7-7--------------------------|
Db|-----------------------------------------------------------|
Ab|-----------------------------------------------------------|
Db|-----------------------------------------------------------|
  | ".i've burned.....found, now i limit my-self...quo - ta"
  |
  | GUITAR 2
Eb|----------------------------------------------------------------------|
Bb|--3---3-3-3-3-3-3-----------------------------------------------------|
Gb|--2---2-2-2-2-2-2-5---5-5-5-5-5-5-5---5-5-5-5-5-5-7---7-7s10---10-10--|
Db|--0---0-0-0-0-0-0-3---3-3-3-3-3-3-3---3-3-3-3-3-3---------------------|
Ab|--0---0---0---0---3---3-3-3-3-3-3-3---3-3-3-3-3-3-5---5-5s-8----8--8--|
Db|--0---0---0---0---3---3---3---3---------------------------------------|

BRIDGE:
    GUITAR 1
Eb|--10---12-13---15-15--13-12---10s8--10s12-10--10--12-13---15-15-13-12--10s8--8s6-6s12--10-10h12-|
Bb|------------------------------------------------------------------------------------------------|
Gb|------------------------------------------------------------------------------------------------|
Db|------------------------------------------------------------------------------------------------|
Ab|------------------------------------------------------------------------------------------------|
Db|------------------------------------------------------------------------------------------------|
  |
Eb|--13s15-13-12s10-10s8-12--10-13---15-15--13--12s10-10s8-8s5~--|
Bb|--------------------------------------------------------------|
Gb|--------------------------------------------------------------|
Db|--------------------------------------------------------------|
Ab|--------------------------------------------------------------|
Db|--------------------------------------------------------------|
  |
  |
  | GUITAR 2
Eb|----0~----------------------------------| x4
Bb|----3~----------------------------------|
Gb|--2-2~---------7------------------------|
Db|--0-0~--5--5-5-5--5s8-8--8-8-10---------|
Ab|--0-----5--5-5-5--5s8-8--8-8--8-----8\--|
Db|--0-----5--5-5-5--5s8-8--8-8--8-----8\--|

CHORUS: (opening only)
Eb|----0~-------------------------------------|
Bb|------3----------------------3-------------|
Gb|--2-----------5--5-x-0-------5-5-----5-7~--|
Db|--0-----------3--3-x-0---5---5---5-5-5-5~--|
Ab|--0------3--3-3--------3---3-------3-5-5~--|
Db|--0------3--3--------------------------5~--|

then..(repeat as many times as needed)

    GUITAR 1 (in time with lyrics)
Eb|------------------------------------------------12----10\--|
Bb|--------------8b------------------------8b-----------------|
Gb|--7-----7----------9------7---7-7--------------------------|
Db|-----------------------------------------------------------|
Ab|-----------------------------------------------------------|
Db|-----------------------------------------------------------|
  | ".i've burned.....found, now i limit my-self...quo - ta"
  |
  | GUITAR 2
Eb|----------------------------------------------------------------------|
Bb|--3---3-3-3-3-3-3-----------------------------------------------------|
Gb|--2---2-2-2-2-2-2-5---5-5-5-5-5-5-5---5-5-5-5-5-5-7---7-7s10---10-10--|
Db|--0---0-0-0-0-0-0-3---3-3-3-3-3-3-3---3-3-3-3-3-3---------------------|
Ab|--0---0---0---0---3---3-3-3-3-3-3-3---3-3-3-3-3-3-5---5-5s-8----8--8--|
Db|--0---0---0---0---3---3---3---3---------------------------------------|

OUTRO: GUITAR 1+2
Eb|---------------------------------------------------------|
Bb|--3---3-3---------------------3--3-3---------------------|
Gb|--2---2-1--x-5--5-5-----------2--2-1--x-5-5-5------------|
Db|--0---0-0--x-5--5-5-0-3-5-3-0-0--0-0--x-5-5-5-0-3-5-3-0--|
Ab|--0---0-0--x-3--3-3-0-2-3-2-0-0--0-0--x-3-3-3-0-2-3-2-0--|
Db|--0---0-0-------------------0-0--0-0------------------0--|
  |
Eb|--------------------------------------------------------|
Bb|--3---3-3---------------------3--3-3-------3--3-3-------|
Gb|--2---2-1--x-5--5-5-----------2--2-1--x-5--2--2-1--x-5--|
Db|--0---0-0--x-5--5-5-0-3-5-3-0-0--0-0--x-5--0--0-0--x-5--|
Ab|--0---0-0--x-3--3-3-0-2-3-2-0-0--0-0--x-3--0--0-0--x-3--|
Db|--0---0-0-------------------0-0--0-0-------0--0-0-------|

===================================================================================================
09 - Walk Away From the Sun
Tuning - Drop D, down half step (recording sounds a half step lower than
written)E
1-Eb
2-Bb
3-Gb
4-Db
5-Ab
6-Db

INTRO: GUITAR 1
Eb|--0--0--0-0--0--0--0--0--0--0-0-0-0-0--0-0-0-0-0-0--| x4
Bb|--0--0--0-0--0--0--0--0--0--0-0-0-0-0--0-0-0-0-0-0--|
Gb|--7--7--7-7-10-10-10-10-10--9-9-9-9-9--7-7-7-5-5-5--|
Db|--7--7--7-7-10-10-10-10-10--9-9-9-9-9--7-7-7-5-5-5--|
Ab|--5--5--5-5--8--8--8--8--8--7-7-7-7-7--5-5-5-3-3-3--|
Db|----------------------------------------------------|
    "walk away from the sun come slowly undone..."

VERSE:
    GUITAR 1
Eb|----------------------------0--0-0--0-0-0--0-0-0-0-0--| x4
Bb|----------------------------3--3-3--3-3-3--3-3-3-3-3--|
Gb|--4s5-5--4-4s5-5--5s7-7-7---2--2-2--2-2-2--2-2-2-2-2--|
Db|--2s3-3--2-2s3-3--3s5-5-5-0-0--0-0--0-0-0--0-0-0-0-0--|
Ab|--2s3-3--2-2s3-3--3s5-5-5-0-0--0-0--0-0-0--0-0-0-0-0--|
Db|--2s3-3--2-2s3-3--3s5-5-5-0-0--0-0--0-0-0--0-0-0-0-0--|
  |
  |
  | GUITAR 2 (in time with lyrics)
Eb|-----5b~---------------10b~--------------------------5b~--|
Bb|-----8b~---------------13b~--------------------------8b~--|
Gb|----------------------------------------------------------|
Db|----------------------------------------------------------|
Ab|----------------------------------------------------------|
Db|----------------------------------------------------------|
    "so much to tell from the stares....but i am no fun"

PRE-CHORUS:
    GUITAR 1
Eb|--0--0--0-0--0--0--0--0--0--0-0-0-0-0--0-0-0-0-0-0--| x4
Bb|--0--0--0-0--0--0--0--0--0--0-0-0-0-0--0-0-0-0-0-0--|
Gb|--7--7--7-7-10-10-10-10-10--9-9-9-9-9--7-7-7-5-5-5--|
Db|--7--7--7-7-10-10-10-10-10--9-9-9-9-9--7-7-7-5-5-5--|
Ab|--5--5--5-5--8--8--8--8--8--7-7-7-7-7--5-5-5-3-3-3--|
Db|----------------------------------------------------|
  | "so turn away from the ones..."
  |
  | GUITAR 2
Eb|---------5~-----5-7-8-7-5----| x4
Bb|--------------------------8--|
Gb|-----7~----------------------|
Db|--7~-------------------------|
Ab|-----------------------------|
Db|-----------------------------|

VERSE:
    GUITAR 1
Eb|----------------------------0--0-0--0-0-0--0-0-0-0-0--| x4
Bb|----------------------------3--3-3--3-3-3--3-3-3-3-3--|
Gb|--4s5-5--4-4s5-5--5s7-7-7---2--2-2--2-2-2--2-2-2-2-2--|
Db|--2s3-3--2-2s3-3--3s5-5-5-0-0--0-0--0-0-0--0-0-0-0-0--|
Ab|--2s3-3--2-2s3-3--3s5-5-5-0-0--0-0--0-0-0--0-0-0-0-0--|
Db|--2s3-3--2-2s3-3--3s5-5-5-0-0--0-0--0-0-0--0-0-0-0-0--|
  |
  |
  | GUITAR 2 (in time with lyrics)
Eb|--------5b~-------10b~-----------------------------5b~--|
Bb|--------8b~-------13b~-----------------------------8b~--|
Gb|--------------------------------------------------------|
Db|--------------------------------------------------------|
Ab|--------------------------------------------------------|
Db|--------------------------------------------------------|
    "we're medicated and scared....but i have no gun"

PRE-CHORUS:
    GUITAR 1
Eb|--0--0--0-0--0--0--0--0--0--0-0-0-0-0--0-0-0-0-0-0--| x4
Bb|--0--0--0-0--0--0--0--0--0--0-0-0-0-0--0-0-0-0-0-0--|
Gb|--7--7--7-7-10-10-10-10-10--9-9-9-9-9--7-7-7-5-5-5--|
Db|--7--7--7-7-10-10-10-10-10--9-9-9-9-9--7-7-7-5-5-5--|
Ab|--5--5--5-5--8--8--8--8--8--7-7-7-7-7--5-5-5-3-3-3--|
Db|----------------------------------------------------|
  | "so turn away from the ones..."
  |
  | GUITAR 2
Eb|---------5~-----5-7-8-7-5----| x4
Bb|--------------------------8--|
Gb|-----7~----------------------|
Db|--7~-------------------------|
Ab|-----------------------------|
Db|-----------------------------|

CHORUS:
    GUITAR 1
Eb|----------------------------------------------------| x4
Bb|--3--3--3-------------------------------------------|
Gb|--2--2--2--------------5--5-5-5--5-5----------------|
Db|--0--0--0--3-3--3--3-3-5--5-5-5--5-5--5-5-5-5--3-3--|
Ab|--0--0--0--3-3--3--3-3-3--3-3-3--3-3--5-5-5-5--3-3--|
Db|--0--0--0--3-3--3--3-3----------------5-5-5-5--3-3--|
  |
  |
  | GUITAR 2 (in time with lyrics, keep rhythm throughout repeats)
Eb|------------------------------10--| x8
Bb|-----13--------12--------10-------|
Gb|----------------------------------|
Db|----------------------------------|
Ab|----------------------------------|
Db|----------------------------------|
    "...fad - ing with ev - er - y day..."

SOLO:
    GUITAR 1
Eb|----------------------------------------------------------------------------------------------|
Bb|----------------------------------------------------------------------------------------------|
Gb|--5-4-2-4--5-5b-5-4-2-2br-2-2-2-5-4-2-4-5-(5)s7-9-7-(7)s5-5s2-2~-0---0-0-------0-0h2-0-5s7br--|
Db|--------------------------0-0-0------------------------------------0-----0h2p0----------------|
Ab|--------------------------0-0-0---------------------------------------------------------------|
Db|----------------------------------------------------------------------------------------------|
  |
Eb|-------------------------------------------------------------|
Bb|-------------------------------------------------5-5br-------|
Gb|--------0-0h2-0-5h7-7b-7br-------0h2p0-5s7-7-7br-------7-7~--|
Db|--0h2p0--------------------0h2p0-----------------------------|
Ab|-------------------------------------------------------------|
Db|-------------------------------------------------------------|
  |
  |
  | GUITAR 2
Eb|---------------------------------------------------| x4
Bb|----------------------------------------3-3-3-3-3--|
Gb|--5s7-7-7-7-7-7-------------------------2-2-2-2-2--|
Db|--5s7-7-7-7-7-7-3-3-3-3-3-3s5-5-5-5-5-5-0-0-0-0-0--|
Ab|--3s5-5-5-5-5-5-3-3-3-3-3-3s5-5-5-5-5-5-0-0-0-0-0--|
Db|----------------3-3-3-3-3-3s5-5-5-5-5-5-0-0-0-0-0--|

VERSE:
    GUITAR 1
Eb|----------------------------0--0-0--0-0-0--0-0-0-0-0--| x4
Bb|----------------------------3--3-3--3-3-3--3-3-3-3-3--|
Gb|--4s5-5--4-4s5-5--5s7-7-7---2--2-2--2-2-2--2-2-2-2-2--|
Db|--2s3-3--2-2s3-3--3s5-5-5-0-0--0-0--0-0-0--0-0-0-0-0--|
Ab|--2s3-3--2-2s3-3--3s5-5-5-0-0--0-0--0-0-0--0-0-0-0-0--|
Db|--2s3-3--2-2s3-3--3s5-5-5-0-0--0-0--0-0-0--0-0-0-0-0--|
  |
  |
  | GUITAR 2
Eb|----------5~-------| x4
Bb|-------------------|
Gb|-----7~--------7~--|
Db|--7~---------------|
Ab|-------------------|
Db|-------------------|

CHORUS:
    GUITAR 1
Eb|----------------------------------------------------| x8
Bb|--3--3--3-------------------------------------------|
Gb|--2--2--2--------------5--5-5-5--5-5----------------|
Db|--0--0--0--3-3--3--3-3-5--5-5-5--5-5--5-5-5-5--3-3--|
Ab|--0--0--0--3-3--3--3-3-3--3-3-3--3-3--5-5-5-5--3-3--|
Db|--0--0--0--3-3--3--3-3----------------5-5-5-5--3-3--|
  |
  |
  | GUITAR 2 (in time with lyrics, keep rhythm throughout repeats)
Eb|------------------------------10--| x16
Bb|-----13--------12--------10-------|
Gb|----------------------------------|
Db|----------------------------------|
Ab|----------------------------------|
Db|----------------------------------|
    "...fad - ing with ev - er - y day..."

END ON: GUITAR 1+2
Eb|------|
Bb|--3~--|
Gb|--2~--|
Db|--0~--|
Ab|--0~--|
Db|--0~--|

===================================================================================================
10 - Eyes of the Devil
Tuning - Drop C
1-D
2-A
3-F
4-C
5-G
6-C

VERSE: GUITAR 1
D|-------------------------------------------------------------------| x4
A|-------------------------------------------------------------------|
F|-------------------------------------------------------------------|
C|----3---3---3---3---3---3---5---5---2---2---2---2---2---2---0---0--|
G|--5---5---5---5---5---5---5---5---0---0---0---0---0---0---0---0----|
C|-------------------------------------------------------------------|
   "it irks me when i get burned..."

INTERLUDE: GUITAR 1(x2)
D|--17----17----17----17----17----17----17----17----17----17----17----17----17----17----17----17---|
A|-----15----15----15----15----15----15----15----15----14----14----14----14----14----14----14----14|
F|-------------------------------------------------------------------------------------------------|
C|-------------------------------------------------------------------------------------------------|
G|-------------------------------------------------------------------------------------------------|
C|-------------------------------------------------------------------------------------------------|
   "I'm weak"


VERSE: GUITAR 1
D|-------------------------------------------------------------------| x4
A|-------------------------------------------------------------------|
F|-------------------------------------------------------------------|
C|----3---3---3---3---3---3---5---5---2---2---2---2---2---2---0---0--|
G|--5---5---5---5---5---5---5---5---0---0---0---0---0---0---0---0----|
C|-------------------------------------------------------------------|
   "so with every new lesson learned..."

CHORUS: GUITAR 1 (repeat entire chorus twice)
D|------------------------------------------------------------------------------------------------|
A|--3--3-3-3-3-3-3-3-3-3--------------------------------------------------------------------------|
F|--2--2-2-2-2-2-2-2-2-2-7-7s5-5------------------------7-7s5-5---5-5-5-5-5--5-5--5-7-7-7s5-5-----|
C|--0--0-0-0-0-0-0-0-0-0-----------7--7-7-7-7-7-7-7-7-7-----------3-3-3-3-3--3-3--3---------------|
G|--0--0-0-0-0-0-0-0-0-0-5-5s3-3-0-7--7-7-7-7-7-7-7-7-7-5-5s3-3-0-3-3-3-3-3--3-3--3-5-5-5s3-3-0---|
C|--0--0-0-0-0-0-0-0-0-0-----------7--7-7-7-7-7-7-7-7-7-----------3-3-3-3-3--3-3--3---------------|
 |
D|----------------------------------|
A|----------------------------------|
F|---------5-5-5-5-5s7-7-7-7s9-9-9--|
C|--7--7-7--------------------------|
G|--7--7-7-3-3-3-3-3s5-5-5-5s7-7-7--|
C|--7--7-7--------------------------|

INTERLUDE: GUITAR 1
D|----------------------------------------------------|
A|----------------------------------------------------|
F|----------------------------------------------------|
C|----------------------------------------------------|
G|--5---5s8--10--7---7s12~--12s10-10p8-8s7---7h8-7-3--|
C|----------------------------------------------------|

VERSE: GUITAR 1
D|-------------------------------------------------------------------| x4
A|-------------------------------------------------------------------|
F|-------------------------------------------------------------------|
C|----3---3---3---3---3---3---5---5---2---2---2---2---2---2---0---0--|
G|--5---5---5---5---5---5---5---5---0---0---0---0---0---0---0---0----|
C|-------------------------------------------------------------------|
   "it kills me to watch this fade"

CHORUS: GUITAR 1 (repeat entire chorus twice)
D|------------------------------------------------------------------------------------------------|
A|--3--3-3-3-3-3-3-3-3-3--------------------------------------------------------------------------|
F|--2--2-2-2-2-2-2-2-2-2-7-7s5-5------------------------7-7s5-5---5-5-5-5-5--5-5--5-7-7-7s5-5-----|
C|--0--0-0-0-0-0-0-0-0-0-----------7--7-7-7-7-7-7-7-7-7-----------3-3-3-3-3--3-3--3---------------|
G|--0--0-0-0-0-0-0-0-0-0-5-5s3-3-0-7--7-7-7-7-7-7-7-7-7-5-5s3-3-0-3-3-3-3-3--3-3--3-5-5-5s3-3-0---|
C|--0--0-0-0-0-0-0-0-0-0-----------7--7-7-7-7-7-7-7-7-7-----------3-3-3-3-3--3-3--3---------------|
 |
D|----------------------------------|
A|----------------------------------|
F|---------5-5-5-5-5s7-7-7-7s9-9-9--|
C|--7--7-7--------------------------|
G|--7--7-7-3-3-3-3-3s5-5-5-5s7-7-7--|
C|--7--7-7--------------------------|

SOLO:
   GUITAR 1 (with wah effect)
D|----------1t------0t-1t------0t-1t-3t---5t-8t-10t---12t-13t-9t---12t-13t-15t---13t-15t-17t---20t-|
A|--3t---5t----2t---------1t-----------------------------------------------------------------------|
F|-------------------------------------------------------------------------------------------------|
C|-------------------------------------------------------------------------------------------------|
G|-------------------------------------------------------------------------------------------------|
C|-------------------------------------------------------------------------------------------------|
 |
D|--20-22-22--|
A|------------|
F|------------|
C|------------|
G|------------|
C|------------|
 |
 |
 | GUITAR 2
D|----------------------------------------------------------------------------------------------|
A|--3--3-3-3--3-3--3-3--3-3-3-3-0--0-0-0--0-0--0-0--0-0-0-0-------------------------------------|
F|--2--2-2-2--2-2--2-2--2-2-2-2-2--2-2-2--2-2--2-2--2-2-2-2-------------------------------------|
C|--0--0-0-0--0-0--0-0--0-0-0-0-2--2-2-2--2-2--2-2--2-2-2-2-3--3-3-3--3-3--3-3--3-3-3-3-7--7-7--|
G|--0--0-0-0--0-0--0-0--0-0-0-0-0--0-0-0--0-0--0-0--0-0-0-0-3--3-3-3--3-3--3-3--3-3-3-3-7--7-7--|
C|--0--0-0-0--0-0--0-0--0-0-0-0-----------------------------3--3-3-3--3-3--3-3--3-3-3-3-7--7-7--|
 |
D|---------------------------|
A|---------------------------|
F|--5-5-5-5-5-7-7-7-7-9-9-9--|
C|---------------------------|
G|--3-3-3-3-3-5-5-5-5-7-7-7--|
C|---------------------------|

CHORUS: (repeat entire chorus twice)
   GUITAR 1
D|--22t------20t--18t--17t--15h17t---15-17-17t--15t-17-15-17t--|
A|-------------------------------------------------------------|
F|-------------------------------------------------------------|
C|-------------------------------------------------------------|
G|-------------------------------------------------------------|
C|-------------------------------------------------------------|
 |
D|--20t-19t-20t-22t--18t-22t--18t-22t--|
A|-------------------------------------|
F|-------------------------------------|
C|-------------------------------------|
G|-------------------------------------|
C|-------------------------------------|
 |
 |
 | GUITAR 2 (repeat entire part twice)
D|------------------------------------------------------------------------------------------------|
A|--3--3-3-3-3-3-3-3-3-3--------------------------------------------------------------------------|
F|--2--2-2-2-2-2-2-2-2-2-7-7s5-5------------------------7-7s5-5---5-5-5-5-5--5-5--5-7-7-7s5-5-----|
C|--0--0-0-0-0-0-0-0-0-0-----------7--7-7-7-7-7-7-7-7-7-----------3-3-3-3-3--3-3--3---------------|
G|--0--0-0-0-0-0-0-0-0-0-5-5s3-3-0-7--7-7-7-7-7-7-7-7-7-5-5s3-3-0-3-3-3-3-3--3-3--3-5-5-5s3-3-0---|
C|--0--0-0-0-0-0-0-0-0-0-----------7--7-7-7-7-7-7-7-7-7-----------3-3-3-3-3--3-3--3---------------|
 |
D|----------------------------------|
A|----------------------------------|
F|---------5-5-5-5-5s7-7-7-7s9-9-9--|
C|--7--7-7--------------------------|
G|--7--7-7-3-3-3-3-3s5-5-5-5s7-7-7--|
C|--7--7-7--------------------------|

INTERLUDE: GUITAR 1
D|-----------------------|
A|--3~-------------------|
F|--2~-------------------|
C|--0~---7~---s3~---s7~--|
G|--0~---7~---s3~---s7~--|
C|--0~---7~---s3~---s7~--|

OUTRO: GUITAR 1
D|-------------------------------------------------------------------| x6
A|-------------------------------------------------------------------|
F|-------------------------------------------------------------------|
C|----3---3---3---3---3---3---5---5---2---2---2---2---2---2---0---0--|
G|--5---5---5---5---5---5---5---5---0---0---0---0---0---0---0---0----|
C|-------------------------------------------------------------------|
   "jesus, save me"

===================================================================================================
11 - Waste
Tuning - The lead guitar is played with a 7 string guitar. it doesnt tell me
the tuning for any of the guitars

INTRO:
   GUITAR 1
1|-------------------------------------------------------------------------------------------------|
2|--3--3---3-3h5-5-3h5p3-3--3-------3----------------------3--3h5-5-3h5p3-3--3-------5p3-3---------|
3|--2--2-2---2---2-----2-3------3-----3---3----3-------2---2--2---2-----2-3------3---------3-3---3-|
4|--0--0-0---0---0-----0------5---5-----5----5---5---0---0-0--0---0-----0------5---5-----------5---|
5|-------------------------------------------------0-----------------------------------------------|
6|-------------------------------------------------------------------------------------------------|
7|-------------------------------------------------------------------------------------------------|
 |
1|-------------|
2|-------------|
3|--------2----|
4|--5---0---0--|
5|----0--------|
6|-------------|
7|-------------|
 |
1|----------------------------------------------------------------------------------------------|
2|--3--3h5-5-3h5p3-3--3-------3----------------------3--3h5-5-3h5p3-3--3-------5p3-3------------|
3|--2--2---2-----2-3------3-----3---3----3-------2---2--2---2-----2-3------3---------3-3---3----|
4|--0--0---0-----0------5---5-----5----5---5---0---0-0--0---0-----0------5---5-----------5---5--|
5|-------------------------------------------0--------------------------------------------------|
6|----------------------------------------------------------------------------------------------|
7|----------------------------------------------------------------------------------------------|
 |
 |
 | GUITAR 2
1|--------------------------------------------------------------------|
2|--3(volume swell)-(3)s8s7~--(7)s3s5s7-(7)br-s3s5s7--(7)br-s3--3s5\--|
3|--------------------------------------------------------------------|
4|--------------------------------------------------------------------|
5|--------------------------------------------------------------------|
6|--------------------------------------------------------------------|

VERSE:
   GUITAR 1
1|-------------------------------------------------------------------------------------------------|
2|--3--3---3-3h5-5-3h5p3-3--3-------3----------------------3--3h5-5-3h5p3-3--3-------5p3-3---------|
3|--2--2-2---2---2-----2-3------3-----3---3----3-------2---2--2---2-----2-3------3---------3-3---3-|
4|--0--0-0---0---0-----0------5---5-----5----5---5---0---0-0--0---0-----0------5---5-----------5---|
5|-------------------------------------------------0-----------------------------------------------|
6|-------------------------------------------------------------------------------------------------|
7|-------------------------------------------------------------------------------------------------|
 |
1|-------------|
2|-------------|
3|--------2----|
4|--5---0---0--|
5|----0--------|
6|-------------|
7|-------------|
 |
1|----------------------------------------------------------------------------------------------|
2|--3--3h5-5-3h5p3-3--3-------3----------------------3--3h5-5-3h5p3-3--3-------5p3-3------------|
3|--2--2---2-----2-3------3-----3---3----3-------2---2--2---2-----2-3------3---------3-3---3----|
4|--0--0---0-----0------5---5-----5----5---5---0---0-0--0---0-----0------5---5-----------5---5--|
5|-------------------------------------------0--------------------------------------------------|
6|----------------------------------------------------------------------------------------------|
7|----------------------------------------------------------------------------------------------|
 |
 |
 | GUITAR 2
1|--------------------------------------------------------------------|
2|--3---------------(3)s8s7~--(7)s3s5s7-(7)br-s3s5s7--(7)br-s3--3s5\--|
3|--------------------------------------------------------------------|
4|--------------------------------------------------------------------|
5|--------------------------------------------------------------------|
6|--------------------------------------------------------------------|

PRE-CHORUS:
   GUITAR 1
1|-------------------------------------------------------------------------------------------------|
2|--0--0------------------------------------------0--0---------------------------------------------|
3|--4--4------------2-------2s6---6-------------2-0--4------------2-------2s6-------------------2--|
4|--4--4--0-----------0---0-----0-----0-----------4--4--0-----------0---0-----0-0-0---0------------|
5|--2--2----------2---------------------------2---2--2----------2-----------------------------2----|
6|----------0h2-3-------3---3s6-----6---0h2-3-------------0h2-3-------3---3s6-------6---0h2-3------|
7|--0--0------------------------------------------0--0---------------------------------------------|
 |
 |
 | GUITAR 2
1|------------------------------------------------------------------------------------|
2|------------------------------------------------------------------------------------|
3|--4--4s12-12-12-12-12-11~s9-9-9-9-9-9-9-9-s4-4s12-12-12-12-12s10---9-9-9-9-9-9-9-9--|
4|------------------------------------------------------------------------------------|
5|------------------------------------------------------------------------------------|
6|------------------------------------------------------------------------------------|

CHORUS:
   GUITAR 1
1|-------------------------------------------------------------------------------------------------|
2|--3--3---3-3h5-5-3h5p3-3--3-------3----------------------3--3h5-5-3h5p3-3--3-------5p3-3---------|
3|--2--2-2---2---2-----2-3------3-----3---3----3-------2---2--2---2-----2-3------3---------3-3---3-|
4|--0--0-0---0---0-----0------5---5-----5----5---5---0---0-0--0---0-----0------5---5-----------5---|
5|-------------------------------------------------0-----------------------------------------------|
6|-------------------------------------------------------------------------------------------------|
7|-------------------------------------------------------------------------------------------------|
 |
1|-------------|
2|-------------|
3|--------2----|
4|--5---0---0--|
5|----0--------|
6|-------------|
7|-------------|
 |
1|----------------------------------------------------------------------------------------------|
2|--3--3h5-5-3h5p3-3--3-------3----------------------3--3h5-5-3h5p3-3--3-------5p3-3------------|
3|--2--2---2-----2-3------3-----3---3----3-------2---2--2---2-----2-3------3---------3-3---3----|
4|--0--0---0-----0------5---5-----5----5---5---0---0-0--0---0-----0------5---5-----------5---5--|
5|-------------------------------------------0--------------------------------------------------|
6|----------------------------------------------------------------------------------------------|
7|----------------------------------------------------------------------------------------------|
 |
 |
 | GUITAR 2
1|-------------------3---3--3--3-3-3-3-3--3-3-3-3--| x4
2|--3---3---3--3--3--3---3--3--3-3-3-3-3--3-3-3-3--|
3|--2---2---2--2--2--3---3--3--3-3-3-3-3--3-3-3-3--|
4|--0---0---0--0--0--5---5--5--5-5-5-5-5--5-5-5-5--|
5|--0---0---0--0--0--5---5--5--5-5-5-5-5--5-5-5-5--|
6|--2---2---2--2--2--3---3--3--3-3-3-3-3--3-3-3-3--|
7|--3---3---3--3--3--3---3--3--3-3-3-3-3--3-3-3-3--|

VERSE:
   GUITAR 1
1|-------------------------------------------------------------------------------------------------|
2|--3--3---3-3h5-5-3h5p3-3--3-------3----------------------3--3h5-5-3h5p3-3--3-------5p3-3---------|
3|--2--2-2---2---2-----2-3------3-----3---3----3-------2---2--2---2-----2-3------3---------3-3---3-|
4|--0--0-0---0---0-----0------5---5-----5----5---5---0---0-0--0---0-----0------5---5-----------5---|
5|-------------------------------------------------0-----------------------------------------------|
6|-------------------------------------------------------------------------------------------------|
7|-------------------------------------------------------------------------------------------------|
 |
1|-------------|
2|-------------|
3|--------2----|
4|--5---0---0--|
5|----0--------|
6|-------------|
7|-------------|
 |
1|----------------------------------------------------------------------------------------------|
2|--3--3h5-5-3h5p3-3--3-------3----------------------3--3h5-5-3h5p3-3--3-------5p3-3------------|
3|--2--2---2-----2-3------3-----3---3----3-------2---2--2---2-----2-3------3---------3-3---3----|
4|--0--0---0-----0------5---5-----5----5---5---0---0-0--0---0-----0------5---5-----------5---5--|
5|-------------------------------------------0--------------------------------------------------|
6|----------------------------------------------------------------------------------------------|
7|----------------------------------------------------------------------------------------------|
 |
 |
 | GUITAR 2
1|--------------------------------------------------------------------|
2|--3---------------(3)s8s7~--(7)s3s5s7-(7)br-s3s5s7--(7)br-s3--3s5\--|
3|--------------------------------------------------------------------|
4|--------------------------------------------------------------------|
5|--------------------------------------------------------------------|
6|--------------------------------------------------------------------|

PRE-CHORUS:
   GUITAR 1
1|-------------------------------------------------------------------------------------------------|
2|--0--0------------------------------------------0--0---------------------------------------------|
3|--4--4------------2-------2s6---6-------------2-0--4------------2-------2s6-------------------2--|
4|--4--4--0-----------0---0-----0-----0-----------4--4--0-----------0---0-----0-0-0---0------------|
5|--2--2----------2---------------------------2---2--2----------2-----------------------------2----|
6|----------0h2-3-------3---3s6-----6---0h2-3-------------0h2-3-------3---3s6-------6---0h2-3------|
7|--0--0------------------------------------------0--0---------------------------------------------|
 |
 |
 | GUITAR 2
1|------------------------------------------------------------------------------------|
2|------------------------------------------------------------------------------------|
3|--4--4s12-12-12-12-12-11~s9-9-9-9-9-9-9-9-s4-4s12-12-12-12-12s10---9-9-9-9-9-9-9-9--|
4|------------------------------------------------------------------------------------|
5|------------------------------------------------------------------------------------|
6|------------------------------------------------------------------------------------|

CHORUS:
   GUITAR 1
1|-------------------------------------------------------------------------------------------------|
2|--3--3---3-3h5-5-3h5p3-3--3-------3----------------------3--3h5-5-3h5p3-3--3-------5p3-3---------|
3|--2--2-2---2---2-----2-3------3-----3---3----3-------2---2--2---2-----2-3------3---------3-3---3-|
4|--0--0-0---0---0-----0------5---5-----5----5---5---0---0-0--0---0-----0------5---5-----------5---|
5|-------------------------------------------------0-----------------------------------------------|
6|-------------------------------------------------------------------------------------------------|
7|-------------------------------------------------------------------------------------------------|
 |
1|-------------|
2|-------------|
3|--------2----|
4|--5---0---0--|
5|----0--------|
6|-------------|
7|-------------|
 |
1|----------------------------------------------------------------------------------------------|
2|--3--3h5-5-3h5p3-3--3-------3----------------------3--3h5-5-3h5p3-3--3-------5p3-3------------|
3|--2--2---2-----2-3------3-----3---3----3-------2---2--2---2-----2-3------3---------3-3---3----|
4|--0--0---0-----0------5---5-----5----5---5---0---0-0--0---0-----0------5---5-----------5---5--|
5|-------------------------------------------0--------------------------------------------------|
6|----------------------------------------------------------------------------------------------|
7|----------------------------------------------------------------------------------------------|
 |
 |
 | GUITAR 2
1|-------------------3---3--3--3-3-3-3-3--3-3-3-3--| x4
2|--3---3---3--3--3--3---3--3--3-3-3-3-3--3-3-3-3--|
3|--2---2---2--2--2--3---3--3--3-3-3-3-3--3-3-3-3--|
4|--0---0---0--0--0--5---5--5--5-5-5-5-5--5-5-5-5--|
5|--0---0---0--0--0--5---5--5--5-5-5-5-5--5-5-5-5--|
6|--2---2---2--2--2--3---3--3--3-3-3-3-3--3-3-3-3--|
7|--3---3---3--3--3--3---3--3--3-3-3-3-3--3-3-3-3--|

INTERLUDE:
   GUITAR 1
1|---------------------------------------------------| x3
2|--0--0------------------------------------------0--|
3|--4--4------------2-------2s6---6-------------2-0--|
4|--4--4--0-----------0---0-----0-----0-----------4--|
5|--2--2----------2---------------------------2---2--|
6|----------0h2-3-------3---3s6-----6---0h2-3--------|
7|--0--0------------------------------------------0--|
 |
1|-------------------------------------------------------------------------------------------------|
2|--3--3---3-3h5-5-3h5p3-3--3-------3----------------------3--3h5-5-3h5p3-3--3-------5p3-3---------|
3|--2--2-2---2---2-----2-3------3-----3---3----3-------2---2--2---2-----2-3------3---------3-3---3-|
4|--0--0-0---0---0-----0------5---5-----5----5---5---0---0-0--0---0-----0------5---5-----------5---|
5|-------------------------------------------------0-----------------------------------------------|
6|-------------------------------------------------------------------------------------------------|
7|-------------------------------------------------------------------------------------------------|
 |
1|-------------|
2|-------------|
3|--------2----|
4|--5---0---0--|
5|----0--------|
6|-------------|
7|-------------|
 |
1|----------------------------------------------------------------------------------------------|
2|--3--3h5-5-3h5p3-3--3-------3----------------------3--3h5-5-3h5p3-3--3-------5p3-3------------|
3|--2--2---2-----2-3------3-----3---3----3-------2---2--2---2-----2-3------3---------3-3---3----|
4|--0--0---0-----0------5---5-----5----5---5---0---0-0--0---0-----0------5---5-----------5---5--|
5|-------------------------------------------0--------------------------------------------------|
6|----------------------------------------------------------------------------------------------|
7|----------------------------------------------------------------------------------------------|
 |
 |
 | GUITAR 2
1|------------------------------------------------------------------------------------|
2|------------------------------------------------------------------------------------|
3|--4--4s12-12-12-12-12-11~s9-9-9-9-9-9-9-9-s4-4s12-12-12-12-12s10---9-9-9-9-9-9-9-9--|
4|------------------------------------------------------------------------------------|
5|------------------------------------------------------------------------------------|
6|------------------------------------------------------------------------------------|
 |
1|-------------------------------------------------------|
2|--12~---12-12-12-12-15br~-----8br--7br-s3--3-5-5br-3~--|
3|-------------------------------------------------------|
4|-------------------------------------------------------|
5|-------------------------------------------------------|
6|-------------------------------------------------------|

OUTRO:
   GUITAR 1
1|-------------------------------------------------------------------------------------------------|
2|--3--3---3-3h5-5-3h5p3-3--3-------3----------------------3--3h5-5-3h5p3-3--3-------5p3-3---------|
3|--2--2-2---2---2-----2-3------3-----3---3----3-------2---2--2---2-----2-3------3---------3-3---3-|
4|--0--0-0---0---0-----0------5---5-----5----5---5---0---0-0--0---0-----0------5---5-----------5---|
5|-------------------------------------------------0-----------------------------------------------|
6|-------------------------------------------------------------------------------------------------|
7|-------------------------------------------------------------------------------------------------|
 |
1|-------------|
2|-------------|
3|--------2----|
4|--5---0---0--|
5|----0--------|
6|-------------|
7|-------------|
 |
1|----------------------------------------------------------------------------------------------|
2|--3--3h5-5-3h5p3-3--3-------3----------------------3--3h5-5-3h5p3-3--3-------5p3-3------------|
3|--2--2---2-----2-3------3-----3---3----3-------2---2--2---2-----2-3------3---------3-3---3----|
4|--0--0---0-----0------5---5-----5----5---5---0---0-0--0---0-----0------5---5-----------5---5--|
5|-------------------------------------------0--------------------------------------------------|
6|----------------------------------------------------------------------------------------------|
7|----------------------------------------------------------------------------------------------|
 |
 |
 | GUITAR 2
1|-------------------3---3--3--3-3-3-3-3--3-3-3-3--| x6
2|--3---3---3--3--3--3---3--3--3-3-3-3-3--3-3-3-3--|
3|--2---2---2--2--2--3---3--3--3-3-3-3-3--3-3-3-3--|
4|--0---0---0--0--0--5---5--5--5-5-5-5-5--5-5-5-5--|
5|--0---0---0--0--0--5---5--5--5-5-5-5-5--5-5-5-5--|
6|--2---2---2--2--2--3---3--3--3-3-3-3-3--3-3-3-3--|
7|--3---3---3--3--3--3---3--3--3-3-3-3-3--3-3-3-3--|

===================================================================================================
12 - Don't Believe
Tuning - Drop C
1-D
2-A
3-F
4-C
5-G
6-C

INTRO: GUITAR 1
D|---------------------------------------------------|
A|---------------------------------------------------|
F|--------5s2-2-------5s2-2-------5s2-2-------5-7-7--|
C|----5s7---------5s7---------5s7---------5s7--------|
G|---------------------------------------------------|
C|--0-----------0-----------0-----------0------------|
 |
D|-----0-0-0-0--0-0-0-0------------------------| x3
A|--3--3-3-3-3--3-3-3-3------------------------|
F|--2--2-2-2-2--2-2-2-2-9--9-9-9-9-5--5-5-5-5--|
C|--0--0-0-0-0--0-0-0-0------------------------|
G|--0----0---0----0---0-7--7-7-7-7-3--3-3-3-3--|
C|--3----3---3----3---3------------------------|
 |
D|-----0-0-0-0--0-0-0-0-----------------|
A|--3--3-3-3-3--3-3-3-3-----------------|
F|--2--2-2-2-2--2-2-2-2-9s5-7--7-7-7-7--|
C|--0--0-0-0-0--0-0-0-0-----------------|
G|--0----0---0----0---0-7s3-5--5-5-5-5--|
C|--3----3---3----3---3-----------------|

VERSE: GUITAR 1 (in time with lyrics)
D|------------------------------------------------------------------|
A|---------------------------------------------------------------1--|
F|--------2------------2--------------------2------------2----------|
C|----2h3---3-2----2h3---3-2------------2h3---3-2----2h3---3-2------|
G|-----------------------------3------------------------------------|
C|--0------------0--------------------0------------0----------------|
              "..stone.........flows..veins........bone..........all"

PRE-CHORUS: GUITAR 1
D|---------------------------------------------------------------------------------------|
A|---------------------------------------------------------------------------------------|
F|---------------------------------------------------------------------------------------|
C|---------------------.-----------------2h3-2----------------------.--------------------|
G|--.-.-.--.-.-.-.-.-.-0--.-.-.--.-.-.-.-------3-.-.-.--.-.-.-.-.-.-0--.-.-.--.-.-.-.-1--|
C|--0-0-0--0-0-0-0-0-0-0--0-0-0--0-0-0-0---------0-0-0--0-0-0-0-0-0-0--0-0-0--0-0-0-0-1--|

CHORUS:
   GUITAR 1
D|--10~-----12~--| x8
A|------10~------|
F|---------------|
C|---------------|
G|---------------|
C|---------------|
 |
 | GUITAR 2
D|-----------------------------------------------------------|
A|--3--3--3-3-3----------------------------------------------|
F|--2--2--2-2-2-------------------------7--7-7-7-7--7-7-7-7--|
C|--0--0--0-0-0-3--3--3--3-3s8--8--8--8-5--5-5-5-5--5-5-5-5--|
G|--0--0--0-0-0-3--3--3--3-3s8--8--8--8-5--5-5-5-5--5-5-5-5--|
C|--0--0--0-0-0-3--3--3--3-3s8--8--8--8-5--5-5-5-5--5-5-5-5--|
 |
D|--------------------------------------------------------------------|
A|--3--3--3-3-3-------------------------------------------------------|
F|--2--2--2-2-2-------------------------12--12-12-12-12--12-12-12-12--|
C|--0--0--0-0-0-3--3--3--3-3s8--8--8--8-10--10-10-10-10--10-10-10-10--|
G|--0--0--0-0-0-3--3--3--3-3s8--8--8--8-10--10-10-10-10--10-10-10-10--|
C|--0--0--0-0-0-3--3--3--3-3s8--8--8--8-10--10-10-10-10--10-10-10-10--|

INTERLUDE: GUITAR 1
D|------------------------------------------------------------------------------------|
A|------------------------------------------------------------------------------------|
F|-------------------------5--5-5-5-------------------------------------5--5-5-5------|
C|--5s7-7-7-7---3--3-3-3---5--5-5-5---5------3p0-5s7-7-7-7---3--3-3-3---5--5-5-5---5--|
G|--3s5-5-5-5---3--3-3-3---3--3-3-3-0-5--.-.-----3s5-5-5-5---3--3-3-3---3--3-3-3-0-5--|
C|------------0-3--3-3-3-0------------5--3-0---------------0-3--3-3-3-0------------5--|

VERSE: GUITAR 1 (in time with lyrics)
D|-------------------------------------------------------------------|
A|----------------------------------------------------------------1--|
F|--------2------------2---------------------2------------2----------|
C|----2h3---3-2----2h3---3-2-------------2h3---3-2----2h3---3-2------|
G|-----------------------------3-------------------------------------|
C|--0------------0---------------------0------------0----------------|
              "..smell.........washed..a-way........smile.........all.."

PRE-CHORUS: GUITAR 1
D|---------------------------------------------------------------------------------------|
A|---------------------------------------------------------------------------------------|
F|---------------------------------------------------------------------------------------|
C|---------------------.-----------------2h3-2----------------------.--------------------|
G|--.-.-.--.-.-.-.-.-.-0--.-.-.--.-.-.-.-------3-.-.-.--.-.-.-.-.-.-0--.-.-.--.-.-.-.-1--|
C|--0-0-0--0-0-0-0-0-0-0--0-0-0--0-0-0-0---------0-0-0--0-0-0-0-0-0-0--0-0-0--0-0-0-0-1--|


CHORUS:
   GUITAR 1
D|--10~-----12~--| x8
A|------10~------|
F|---------------|
C|---------------|
G|---------------|
C|---------------|
 |
 |
 | GUITAR 2
D|-----------------------------------------------------------|
A|--3--3--3-3-3----------------------------------------------|
F|--2--2--2-2-2-------------------------7--7-7-7-7--7-7-7-7--|
C|--0--0--0-0-0-3--3--3--3-3s8--8--8--8-5--5-5-5-5--5-5-5-5--|
G|--0--0--0-0-0-3--3--3--3-3s8--8--8--8-5--5-5-5-5--5-5-5-5--|
C|--0--0--0-0-0-3--3--3--3-3s8--8--8--8-5--5-5-5-5--5-5-5-5--|
 |
D|--------------------------------------------------------------------|
A|--3--3--3-3-3-------------------------------------------------------|
F|--2--2--2-2-2-------------------------12--12-12-12-12--12-12-12-12--|
C|--0--0--0-0-0-3--3--3--3-3s8--8--8--8-10--10-10-10-10--10-10-10-10--|
G|--0--0--0-0-0-3--3--3--3-3s8--8--8--8-10--10-10-10-10--10-10-10-10--|
C|--0--0--0-0-0-3--3--3--3-3s8--8--8--8-10--10-10-10-10--10-10-10-10--|

INTERLUDE:
   GUITAR 1
D|--0~------0~------0~------0~--------------------------|
A|--3~------3~------3~------3~--------------------------|
F|--2~------2~------2~------2~--------------------------|
C|--0~------0~------0~------0~----3--3-3-3-3s5-5-5-5-5--|
G|--0~------0~------0~------0~----3--3-3-3-3s5-5-5-5-5--|
C|--0~------0~------0~------0~----3--3-3-3-3s5-5-5-5-5--|
 |
 |
 | GUITAR 2 (with octave effect)  v--x3
D|--5-6-5--6s8-7--5--7-----------------||--5-6-5--6s8-7--5--7-----8-8-8-8-8-8s10-10-10-10-10-10--|
A|----------------------5--------------||----------------------5---------------------------------|
F|-------------------------5--5s7-5s7--||-------------------------5-5-5-5-5-5s-7--7--7--7--7--7--|
C|-------------------------------------||--------------------------------------------------------|
G|-------------------------------------||--------------------------------------------------------|
C|-------------------------------------||--------------------------------------------------------|

PRE-CHORUS: GUITAR 1
D|---------------------------------------------------------------------------------------|x2
A|---------------------------------------------------------------------------------------|
F|---------------------------------------------------------------------------------------|
C|---------------------.-----------------2h3-2----------------------.--------------------|
G|--.-.-.--.-.-.-.-.-.-0--.-.-.--.-.-.-.-------3-.-.-.--.-.-.-.-.-.-0--.-.-.--.-.-.-.-1--|
C|--0-0-0--0-0-0-0-0-0-0--0-0-0--0-0-0-0---------0-0-0--0-0-0-0-0-0-0--0-0-0--0-0-0-0-1--|

CHORUS:
   GUITAR 1
D|--10~-----12~--| x8
A|------10~------|
F|---------------|
C|---------------|
G|---------------|
C|---------------|
 |
 |
 | GUITAR 2
D|-----------------------------------------------------------|
A|--3--3--3-3-3----------------------------------------------|
F|--2--2--2-2-2-------------------------7--7-7-7-7--7-7-7-7--|
C|--0--0--0-0-0-3--3--3--3-3s8--8--8--8-5--5-5-5-5--5-5-5-5--|
G|--0--0--0-0-0-3--3--3--3-3s8--8--8--8-5--5-5-5-5--5-5-5-5--|
C|--0--0--0-0-0-3--3--3--3-3s8--8--8--8-5--5-5-5-5--5-5-5-5--|
 |
D|--------------------------------------------------------------------|
A|--3--3--3-3-3-------------------------------------------------------|
F|--2--2--2-2-2-------------------------12--12-12-12-12--12-12-12-12--|
C|--0--0--0-0-0-3--3--3--3-3s8--8--8--8-10--10-10-10-10--10-10-10-10--|
G|--0--0--0-0-0-3--3--3--3-3s8--8--8--8-10--10-10-10-10--10-10-10-10--|
C|--0--0--0-0-0-3--3--3--3-3s8--8--8--8-10--10-10-10-10--10-10-10-10--|

INTERLUDE: GUITAR 1
D|------------------------------------------------------------------------------------|
A|------------------------------------------------------------------------------------|
F|-------------------------5--5-5-5-------------------------------------5--5-5-5------|
C|--5s7-7-7-7---3--3-3-3---5--5-5-5---5------3p0-5s7-7-7-7---3--3-3-3---5--5-5-5---5--|
G|--3s5-5-5-5---3--3-3-3---3--3-3-3-0-5--.-.-----3s5-5-5-5---3--3-3-3---3--3-3-3-0-5--|
C|------------0-3--3-3-3-0------------5--3-0---------------0-3--3-3-3-0------------5--|

OUTRO: GUITAR 1 (with fast vibrato and effects)
D|--------------------------------------------------|
A|--------------------------------------------------|
F|--------------------------------------------------|
C|--------------------------------------------------|
G|--------------------------------------------------|
C|--3----3--2--2----3--2--3----2--3--3----3--2--3~--|

and there you go

===============================================================================
LEGEND
===============================================================================
h-hammer on
p-pull off
~-let ring
<>-harmonics
x-left hand mute
. above note-palm mute
s-slide to note
\-slide down to nothing
/-slide up to nothing
b-bend note
r-return from bend
()-ghost note
t-trem. picking
comments
print report bad tab
6 comments total. Showing first comments.
+1 reply
Huffman wrote on September 11 2008, 10:01 pm

this must have taken hrs... i wouldnt have parcients... looks tight without trying any of it yet... but its a sick CD

+1 reply
inflamedpersona wrote on February 5 2009, 02:09 pm

Waste is in Standard Tuning. I started to tab out a Guitar Pro tab a while back but I couldn't figure out the guitar part under the bridge ("I feel disdain, just like you do" etc). Thanks for doing this though, bro, this is an amazing CD.

0 reply
E-PIG wrote on May 19 2009, 12:20 pm

i agree with huffman, holy sheit

I want to post or [tab]
guest
You may want to rate the tab now too:
select rating
Please do not post tabs as comments. Select "correction" instead!