Oops, an error
Loading. Please wait.

Gasoline Tab

ver3
ver3

Interactive

More versions @911Tabs.com
3,238 views 3 this week
no commentswrite comment
1 2 3 4 5
accurate
x 1
add to favorites launch autoscroll
font size
0
reset
Autoscroll
+/-
esc
set tempo
stop
Contributor
Difficulty
intermediate
WARNING: You are trying to view
                                    content from Ultimate-Guitar.com
                                    in an unauthorized application,
                                    which is prohibited.

                                    Please use an official Ultimate
                                    Guitar Tabs application for iPhone,
                                    iPad or Android to access legitimate
                                    chords, guitar, bass, and drum tabs
                                    from Ultimate-Guitar.com database.

                                    Type "ultimate guitar tabs" in Apple
                                    App Store's or Android Market's
                                    search to find the application.
-------------------------------------------------------------------------------
                             GASOLINE - seether
-------------------------------------------------------------------------------
Tabbed by: Ben Disinger
Email: DingoDance@gmail.com

Tuning: 1/2 Step Down

e|---------------------------------------------------------------------------|
B|----------------------------0-------------------------------0--------------|
G|----------------------------0-------------------------------0--------------|
D|-2-2------------------------0----2-2------------------------0--------------|
A|-2-2--x-x--x-----x--x---x-x------2-2--x-x--x-----x--x---x-x----------------|
E|-0-0--x-x--x-----x--x---x-x------0-0--x-x--x-----x--x---x-x----------------|

e|---------------------------------------------------------------------------|
B|----------------------------0-------------------------------0--------------|
G|----------------------------0-------------------------------0--------------|
D|-2-2------------------------0----2-2------------------------0--------------|
A|-2-2--x-x--x-----x--x---x-x------2-2--x-x--x-----x--x---x-x----------------|
E|-0-0--x-x--x-----x--x---x-x------0-0--x-x--x-----x--x---x-x----------------|

e|---------------------------------------------------------------------------|
B|---------------------------------------------------------------------------|
G|----------9---9---7--7-7/10-10-10------------9---9---7--7-7/10-10-10-------|
D|-2-2-2----7---7---5--5-5/-8--8--8---2-2-2----7---7---5--5-5/10--8--8-------|
A|-2-2-2----7---7---5--5-5/-8--8--8---2-2-2----7---7---5--5-5/8---8--8-------|
E|-0-0-0------------------------------0-0-0----------------------------------|

e|---------------------------------------------------------------------------|
B|---------------------------------------------------------------------------|
G|----------9---9---7--7-7/10-10-10------------9---9---7--7-7/12-12-12-12----|
D|-2-2-2----7---7---5--5-5/-8--8--8---2-2-2----7---7---5--5-5/10-10-10-10----|
A|-2-2-2----7---7---5--5-5/-8--8--8---2-2-2----7---7---5--5-5/10-10-10-10----|
E|-0-0-0------------------------------0-0-0----------------------------------|

e|---------------------------------------------------------------------------|
B|---------------------------------------------------------------------------|
G|---------------------------------------------------------------------------|
D|-2-2-----------------------------------------------------------------------|
A|-2-2--x-x-------------------------------------------------------------x-x--|
E|-0-0--x-x-------------------------------------------------------------x-x--|

e|---------------------------------------------------------------------------|
B|---------------------------------------------------------------------------|
G|-----------------------------------------------------------------0h2h3p2p0-|
D|-2-2-----------------------------------------------------------------------|
A|-2-2-----------------------------------------------------------------------|
E|-0-0-----------------------------------------------------------------------|

e|---------------------------------------------------------------------------|
B|----------------------------0-------------------------------0--------------|
G|----------------------------0-------------------------------0--------------|
D|-2-2------------------------0----2-2------------------------0--------------|
A|-2-2--x-x--x-----x--x---x-x------2-2--x-x--x-----x--x---x-x----------------|
E|-0-0--x-x--x-----x--x---x-x------0-0--x-x--x-----x--x---x-x----------------|

e|---------------------------------------------------------------------------|
B|----------------------------0-------------------------------0--0--0--0-----|
G|----------------------------0-------------------------------0--0--0--0-----|
D|-2-2------------------------0----2-2------------------------0--0--0--0-----|
A|-2-2--x-x--x-----x--x---x-x------2-2--x-x--x-----x--x---x-x----------------|
E|-0-0--x-x--x-----x--x---x-x------0-0--x-x--x-----x--x---x-x----------------|

e|---------------------------------------------------------------------------|
B|---------------------------------------------------------------------------|
G|---------5/7-7-7-7-----------------------5/7-7-7-7-------------------------|
D|-2--2-2--5/7-7-7-7-5-5---5-5-5---2--2-2--5/7-7-7-7-5-5---5-5-5-------------|
A|-2--2-2--3/5-5-5-5-5-5---5-5-5---2--2-2--3/5-5-5-5-5-5---5-5-5-------------|
E|-0--0-0--3/5-5-5-5-3-3---3-3-3---0--0-0--3/5-5-5-5-3-3---3-3-3-------------|

e|---------------------------------------------------------------------------|
B|---------------------------------------------------------------------------|
G|---------5/7-7-7-7-----------------------5/7-7-7-7-------------------------|
D|-2--2-2--5/7-7-7-7-5-5---5-5-5---2--2-2--5/7-7-7-7-5-5---5-5-5-------------|
A|-2--2-2--3/5-5-5-5-5-5---5-5-5---2--2-2--3/5-5-5-5-5-5---5-5-5-------------|
E|-0--0-0--3/5-5-5-5-3-3---3-3-3---0--0-0--3/5-5-5-5-3-3---3-3-3-------------|


e|---------------------------------------------------------------------------|
B|---------------------------------------------------------------------------|
G|------------9---9---7--7-7/10-10-10------------9---9---7--7-7/10-10-10-----|
D|-2-2-2------7---7---5--5-5/-8--8--8---2-2-2----7---7---5--5-5/10--8--8-----|
A|-2-2-2------7---7---5--5-5/-8--8--8---2-2-2----7---7---5--5-5/8---8--8-----|
E|-0-0-0--------------------------------0-0-0--------------------------------|

e|---------------------------------------------------------------------------|
B|---------------------------------------------------------------------------|
G|------------9---9---7--7-7/10-10-10------------9---9---7--7-7/12-12-12-12--|
D|-2-2-2------7---7---5--5-5/-8--8--8---2-2-2----7---7---5--5-5/10-10-10-10--|
A|-2-2-2------7---7---5--5-5/-8--8--8---2-2-2----7---7---5--5-5/10-10-10-10--|
E|-0-0-0--------------------------------0-0-0--------------------------------|

e|---------------------------------------------------------------------------|
B|---------------------------------------------------------------------------|
G|---------------------------------------------------------------------------|
D|-2-2-----------------------------------------------------------------------|
A|-2-2--x-x-------------------------------------------------------------x-x--|
E|-0-0--x-x-------------------------------------------------------------x-x--|

e|---------------------------------------------------------------------------|
B|---------------------------------------------------------------------------|
G|-----------------------------------------------------------------0h2h3p2p0-|
D|-2-2-----------------------------------------------------------------------|
A|-2-2--x-x------------------------------------------------------------------|
E|-0-0--x-x------------------------------------------------------------------|

e|---------------------------------------------------------------------------|
B|----------------------------0-------------------------------0--------------|
G|----------------------------0-------------------------------0--------------|
D|-2-2------------------------0----2-2------------------------0--------------|
A|-2-2--x-x--x-----x--x---x-x------2-2--x-x--x-----x--x---x-x----------------|
E|-0-0--x-x--x-----x--x---x-x------0-0--x-x--x-----x--x---x-x----------------|

e|---------------------------------------------------------------------------|
B|----------------------------0-------------------------------0--0--0--0-----|
G|----------------------------0-------------------------------0--0--0--0-----|
D|-2-2------------------------0----2-2------------------------0--0--0--0-----|
A|-2-2--x-x--x-----x--x---x-x------2-2--x-x--x-----x--x---x-x----------------|
E|-0-0--x-x--x-----x--x---x-x------0-0--x-x--x-----x--x---x-x----------------|

e|---------------------------------------------------------------------------|
B|---------------------------------------------------------------------------|
G|---------5/7-7-7-7-----------------------5/7-7-7-7-------------------------|
D|-2--2-2--5/7-7-7-7-5-5---5-5-5---2--2-2--5/7-7-7-7-5-5---5-5-5-------------|
A|-2--2-2--3/5-5-5-5-5-5---5-5-5---2--2-2--3/5-5-5-5-5-5---5-5-5-------------|
E|-0--0-0--3/5-5-5-5-3-3---3-3-3---0--0-0--3/5-5-5-5-3-3---3-3-3-------------|

e|---------------------------------------------------------------------------|
B|---------------------------------------------------------------------------|
G|---------5/7-7-7-7-----------------------5/7-7-7-7-------------------------|
D|-2--2-2--5/7-7-7-7-5-5---5-5-5---2--2-2--5/7-7-7-7-5-5---5-5-5-------------|
A|-2--2-2--3/5-5-5-5-5-5---5-5-5---2--2-2--3/5-5-5-5-5-5---5-5-5-------------|
E|-0--0-0--3/5-5-5-5-3-3---3-3-3---0--0-0--3/5-5-5-5-3-3---3-3-3-------------|

e|---------------------------------------------------------------------------|
B|---------------------------------------------------------------------------|
G|---------------------------------------------------------------------------|
D|-2--2-2-7-6-6-6-6-5-5-5-5-4-3-2--2--2-2-7-6-6-6-6-5-5-5-5-4--x-------------|
A|-2--2-2-5-4-4-4-4-3-3-3-3-2-1-2--2--2-2-5-4-4-4-4-3-3-3-3-2--x-------------|
E|-0--0-0-5-4-4-4-4-3-3-3-3-2-1-0--0--0-0-5-4-4-4-4-3-3-3-3-2--x-------------|

e|---------------------------------------------------------------------------|
B|---------------------------------------------------------------------------|
G|---------------------------------------------------------------------------|
D|-2--2-2-7-6-6-6-6-5-5-5-5-4-3-2--2--2-2-7-6-6-6-6-5-5-5-5-4--x-------------|
A|-2--2-2-5-4-4-4-4-3-3-3-3-2-1-2--2--2-2-5-4-4-4-4-3-3-3-3-2--x-------------|
E|-0--0-0-5-4-4-4-4-3-3-3-3-2-1-0--0--0-0-5-4-4-4-4-3-3-3-3-2--x-------------|

w/ wah effect
e|---------------------------------------------------------------------------|
B|-5-5-5-5-5-5-5-5-5-5-5-5-5-3-3-3-3-5-5-5-5-5-5-5-5-5-5-5-5-5-5-5-----------|
G|---------------------------------------------------------------------------|
D|---------------------------------------------------------------------------|
A|---------------------------------------------------------------------------|
E|---------------------------------------------------------------------------|
w/ wah effect->>>>>>>>>| 
e|---------------------------------------------------------------------------|
B|-5-5-5-5-5-5-5-5-5-5-------------------------------------------------------|
G|---------------------------0h2h3p2p0---------------------------------------|
D|----------------------14/--------------------------------------------------|
A|---------------------------------------------------------------------------|
E|---------------------------------------------------------------------------|

e|---------------------------------------------------------------------------|
B|----------------------------0-------------------------------0--------------|
G|----------------------------0-------------------------------0--------------|
D|-2-2------------------------0----2-2------------------------0--------------|
A|-2-2--x-x--x-----x--x---x-x------2-2--x-x--x-----x--x---x-x----------------|
E|-0-0--x-x--x-----x--x---x-x------0-0--x-x--x-----x--x---x-x----------------|

e|---------------------------------------------------------------------------|
B|----------------------------0-------------------------------0--0--0--0-----|
G|----------------------------0-------------------------------0--0--0--0-----|
D|-2-2------------------------0----2-2------------------------0--0--0--0-----|
A|-2-2--x-x--x-----x--x---x-x------2-2--x-x--x-----x--x---x-x----------------|
E|-0-0--x-x--x-----x--x---x-x------0-0--x-x--x-----x--x---x-x----------------|

e|---------------------------------------------------------------------------|
B|---------------------------------------------------------------------------|
G|---------5/7-7-7-7-----------------------5/7-7-7-7-------------------------|
D|-2--2-2--5/7-7-7-7-5-5---5-5-5---2--2-2--5/7-7-7-7-5-5---5-5-5-------------|
A|-2--2-2--3/5-5-5-5-5-5---5-5-5---2--2-2--3/5-5-5-5-5-5---5-5-5-------------|
E|-0--0-0--3/5-5-5-5-3-3---3-3-3---0--0-0--3/5-5-5-5-3-3---3-3-3-------------|

e|---------------------------------------------------------------------------|
B|---------------------------------------------------------------------------|
G|---------5/7-7-7-7-----------------------5/7-7-7-7-------------------------|
D|-2--2-2--5/7-7-7-7-5-5---5-5-5---2--2-2--5/7-7-7-7-5-5---5-5-5-------------|
A|-2--2-2--3/5-5-5-5-5-5---5-5-5---2--2-2--3/5-5-5-5-5-5---5-5-5-------------|
E|-0--0-0--3/5-5-5-5-3-3---3-3-3---0--0-0--3/5-5-5-5-3-3---3-3-3-------------|

e|---------------------------------------------------------------------------|
B|---------------------------------------------------------------------------|
G|---------5/7-7-7-7-----------------------5/7-7-7-7-------------------------|
D|-2--2-2--5/7-7-7-7-5-5---5-5-5---2--2-2--5/7-7-7-7-5-5---5-5-5-------------|
A|-2--2-2--3/5-5-5-5-5-5---5-5-5---2--2-2--3/5-5-5-5-5-5---5-5-5-------------|
E|-0--0-0--3/5-5-5-5-3-3---3-3-3---0--0-0--3/5-5-5-5-3-3---3-3-3-------------|

e|---------------------------------------------------------------------------|
B|---------------------------------------------------------------------------|
G|---------5/7-7-7-7-----------------------5/7-7-7-7-------------------------|
D|-2--2-2--5/7-7-7-7-5-5---5-5-5---2--2-2--5/7-7-7-7-5-5---5-5-5-------------|
A|-2--2-2--3/5-5-5-5-5-5---5-5-5---2--2-2--3/5-5-5-5-5-5---5-5-5-------------|
E|-0--0-0--3/5-5-5-5-3-3---3-3-3---0--0-0--3/5-5-5-5-3-3---3-3-3-------------|

e|---------------------------------------------------------------------------|
B|---------------------------------------------------------------------------|
G|---------------------------------------------------------------------------|
D|---------------------------------------------------------------------------|
A|-2--2--x-x--x---x--x----7-7-5-5--2--2--x-x--x---x--x----7-7-5-5------------|
E|-0--0--x-x--x---x--x--0-5-5-3-3--0--0--x-x--x---x--x--0-5-5-3-3------------|

e|---------------------------------------------------------------------------|
B|---------------------------------------------------------------------------|
G|-------------------------------------------------------7-7-7---------------|
D|-------------------------------------------------------7-7-7---------------|
A|-2--2--x-x--x---x--x----7-7-5-5--2--2--x-x--x---x--x---5-5-5---------------|
E|-0--0--x-x--x---x--x--0-5-5-3-3--0--0--x-x--x---x--x-0-5-5-5---------------|





| /  slide up
| \  slide down
| h  hammer-on
| p  pull-off
| ~  vibrato
| +  harmonic
| x  Mute note
===============================================================================
comments
We did not receive enough feedback on this tab! Please rate:
print report bad tab
1 2 3 4 5
I want to post or [tab]
guest
You may want to rate the tab now too:
select rating
Please do not post tabs as comments. Select "correction" instead!