Oops, an error
Loading. Please wait.

Given Tab

ver2
ver2

Solo

Whole song

Interactive

More versions @911Tabs.com
1,187 views 1 this week
4 commentsread comments
1 2 3 4 5
accurate
x 3
Autoscroll
+/-
esc
set tempo
stop
Contributor
Difficulty
Tuning
intermediate
C G C F A D
WARNING: You are trying to view
                                    content from Ultimate-Guitar.com
                                    in an unauthorized application,
                                    which is prohibited.

                                    Please use an official Ultimate
                                    Guitar Tabs application for iPhone,
                                    iPad or Android to access legitimate
                                    chords, guitar, bass, and drum tabs
                                    from Ultimate-Guitar.com database.

                                    Type "ultimate guitar tabs" in Apple
                                    App Store's or Android Market's
                                    search to find the application.
Band:Seether
Song:Given
Album:Karma & Effect (2005)

I’ve had this CD for a while and I finally decided to sit down and tab it out.
It’s a fairly simple song to play; the verse will look hard at first, but once you 
figure out a comfortable fingering, it’s easy. Im workin’ on tabbing some more 
of Seether’s stuff cuz there ain’t a whole bunch of good tabs from Karma & Effect 
on here. Good luck and enjoy!

Tuning: Drop C ( 99% sure; I tried every other tuning and it didn’t sound accurate)

Legend:
\-slide down
/-slide up
p-pull off
h-hammer on
~-vibrato
o--|
---| (<this means repeat what was before)
o--|


Intro & Verse
(w/Delay)
|--------------------------------------------------|
|--------------------------------------------------|
|--------7\5-3----------------------------------5--|
|--------5\3-3----3----3-------3-----3----------3--|
|----0--------------------------------------3------|
|--0—-0--------0----0----0--1-----1----1—-3--3-----|


Chorus                     
|-------------------------------------------|
|-------------------------------------------|
|--0-000-----8-888------3-333--3-333-XX-----|
|--0-000-----8-888------3-333--3-333-XX-----|
|--0-000-----8-888------3-333--3-333-XX-----|
|Then
|-------------------------------------------|
|-------------------------------------------|
|-------------------------------------------|
|--0-000-----8-888---3-333—3p1-11-3p1-11----|
|--0-000-----8-888---3-333—3p1-11-3p1-11----|
|--0-000-----8-888---3-333—3p1-11-3p1-11----|


Post-Chorus
|------------------------------------------------------------|
|------------------------------------------------------------|
|--------8\6/8-------10\8/10-------8/10\8------10\8\6--------|
|------------------------------------------------------------|
|--00-00-6\4/6-00-00--8\6/8--00-00-6/8-\6-00-00-8\6\4--------|
|--00-00-------00-00---------00-00--------00-00--------------|


2nd and 3rd Chorus Leads
|-------------------------------------------------------------|
|-------------------------------------------------------------|
|-------------------------------------------------------------|
|-------------------------------------------------------------|
|--3-33-3\1/3-3/6-66-6\3/6-6/8-88-8\6/8-8/10-1010-10/13-1313--|
|-------------------------------------------------------------|

Bridge
|-----------------------------------------|
|-----------------------------------------|
|------888-----101010-----888-------------|
|------888-----101010-----888-----10-8-6--|X2 Then go to Solo
|--000-666-000—-8-8-8-000-666-000-10-8-6--|
|--000-666-000--8-8-8-000-666-000-10-8-6--|



Solo
|--8-8--8-6-10-11~\-----------------------------------|
|------------------6-8-6-3---6-8-6-3--1----6-3-8-10\--|
|----------------------------------------------7--9\--|
|-----------------------------------------------------|
|-----------------------------------------------------|
|-----------------------------------------------------|
*the rhythm behind this is the chorus rhythm. :)


Song order(you figure out how many times to play each):
Verse
Chorus 
Post-Chorus
Verse
Chorus(w/lead)
Post-Chorus
Bridge
Solo
Chorus(w/lead)
Post-Chorus

This is a pretty good song, and the other tab for it didn’t do Seether justice. I might
work on an album tab for Karma & Effect, but I don’t have a lot of time to tab stuff out,
so wait patiently. I might decide against it; there are a lot of good Seether tabs
between MXtabs and UG. They’re not all accurate, but enough to figure it out for
yourself. Oh, if anyone that reads this has the Karma & Effect music book, or a 12
Stones music book, e-mail me, I’d like to know how accurate I am. If you have questions
or comments, e-mail me.
i_hate_satan16@yahoo.com or guitar_dude_16@hotmail.com, please use my yahoo, only use my
msn unless you can’t get yahoo. Enjoy, please rate.






comments
We did not receive enough feedback on this tab! Please rate:
print report bad tab
1 2 3 4 5
4 comments total. Showing first comments.
0 reply
Slipmyknot wrote on February 12 2006, 08:01 pm

Sounds good bro nice job! I'll make sure if i want anymore seether tabs i look for your name.

0 reply
bobbynogo wrote on April 10 2006, 08:55 pm

its ok, the intro sounds kinda funky

0 reply
boyan89 wrote on July 7 2006, 09:02 am

hey can i use this tab to make a Karman And Effect album

I want to post or [tab]
guest
You may want to rate the tab now too:
select rating
Please do not post tabs as comments. Select "correction" instead!