Oops, an error
Loading. Please wait.

Holding Onto Strings Better Left To Fray Tab

742 views 3 this week
no commentswrite comment
1 2 3 4 5
accurate
x 2
add to favorites launch autoscroll
font size
0
reset
Autoscroll
+/-
esc
set tempo
stop
Contributor
Difficulty
intermediate
WARNING: You are trying to view
                                    content from Ultimate-Guitar.com
                                    in an unauthorized application,
                                    which is prohibited.

                                    Please use an official Ultimate
                                    Guitar Tabs application for iPhone,
                                    iPad or Android to access legitimate
                                    chords, guitar, bass, and drum tabs
                                    from Ultimate-Guitar.com database.

                                    Type "ultimate guitar tabs" in Apple
                                    App Store's or Android Market's
                                    search to find the application.
Alright, none of these tabs are mine. I left the tabbers' names by each song.

Artist: Seether
Song: Fur Cue
Album: Holding Onto Strings Better Left To Fray
Tabbed By: Subhadip Mondal (DeepRocks2011)
Tuning: Dropped C (C G C F A D)


MAIN RIFF :

D|----------------------------------|
A|----------------------------------|
F|----------------------------------|
C|---2h3p2--0h2-2--0h2--2--0h2--2---|
G|---2h3p2--0h2-2--0h2--2--0h2--2---|
C|---2h3p2--0h2-2--0h2--2--0h2--2---|


D|----------------------------------|
A|----------------------------------|
F|----------------------------------|
C|---2h3p2--0h2-2--0h2--2-----------|
G|---2h3p2--0h2-2--0h2--2-----------|
C|---2h3p2--0h2-2--0h2--2\14--------| ...... x2


LEAD PART :

D|------------------------------------------------------------------|
A|------------------------------------------5b------4h5p4---7h8p7---|
F|-------------------------------7---7/5/4----4---------------------|
C|---7\9---7-9-9---7-9-10---9-10------------------------------------|
G|------------------------------------------------------------------|
C|------------------------------------------------------------------|


HARMONICS :

D|------(5)---|
A|------(5)---|
F|------(5)---|
C|------------|
G|---0--------|
C|---0--------|
**Play the open strings palm muted**



PRE CHORUS :

D|-----------------------------|
A|-----------------------------|
F|-----------------------------|
C|-----------------------------|
G|-----------------------------|
C|---0-2--2--0-2--2--2---3-2---|
**Play this first, second and fourth time**


D|---------------------------------|
A|---------------------------------|
F|---------------------------------|
C|---0-----------------------------|
G|---0-----------------------------|
C|---0---0-2--2--0-2--2--2---3-2---|
**Third time play this**


CHORUS :

D|---------------------------------------------------|
A|---------------------1---1---3---------------------|
F|---------------------0---2---2---------------------|
C|---5---5---7---3-2---2---2---0---3-3-x-x-2-2-x-x---|
G|---3---5---7---3-2---3---0---0---3-3-x-x-2-2-x-x---|
C|-------5---7---3-2---------------3-3-x-x-2-2-x-x---|
                                 **Play this part in the rhythm,
                            listen to the song for the right timing**

BRIDGE :

D|-----------------------------|
A|-----------------------------|
F|-----------------------------|
C|---8--7--5----2---2---0------|
G|---8--7--5----2---2---0------|
C|---8--7--5----2---2---0------| ...... x3


D|-----------------------------|
A|-----------------------------|
F|-----------------------------|
C|---3--3--3--5--5---0--2------|
G|---3--3--3--5--5---0--2------|
C|---3--3--3--5--5---0--2------|


() Harmonics
X  Muted
\  Front Slide
/  Back Slide
p  Pull Off
h  Hammer on
b  Bend



THIS IS JUST THE RHYTHM GUITAR MEANING THE INTRO RIFF IS MISSING!
Tabbed by:DONNOVON PRITCHARD
Email:Dolympose@gmail.com

Tuning:Drop C

Order
Intro(play the Verse)
Chorusx2
Verse
Chorusx2
verse
Chorusx2
Bridge
Versex4
Chorusx4

Chorus-Distortion
e|--------------------------------------------------------------------------|
B|--------------------------------------------------------------------------|
G|------5-----5-------------------------------------------------------------|
D|---0--5--0--5--0--3--0--3--0--3--5--6-------------------------------------|
A|---0--3--0--3--0--3--0--3--0--3--5--6-------------------------------------|
E|---0-----0-----0--3--0--3--0--3--5--6-------------------------------------|

e|--------------------------------------------------------------------------|
B|--------------------------------------------------------------------------|
G|------5-----5-------------------------------------------------------------|
D|---0--5--0--5--0--3--0--3--0--6--5--3--0----------------------------------|
A|---0--3--0--3--0--3--0--3--0--6--5--3--0----------------------------------|
E|---0-----0-----0--3--0--3--0--6--5--3--0----------------------------------|

e|----------------------------------------------------------------------------|
B|----------------------------------------------------------------------------|
G|------5-----5---------------------------------------------------------------|
D|---0--5--0--5--0--3--0--3--0--3--5--6--5--5--5--5/6--6--6--6--6-------------|
A|---0--3--0--3--0--3--0--3--0--3--5--6--5--5--5--5/6--6--6--6--6-------------|
E|---0-----0-----0--3--0--3--0--3--5--6--5--5--5--5/6--6--6--6--6-------------|

Verses-Clean
e|--------------------------------------------------------------------------|
B|--------------------------------------------------------------------------|
G|--------------------------------------------------------------------------|
D|--------------------------------------------------------------------------|
A|---5--5--5/3--3/5---------------------------------------------------------|
E|---5--5--5/3--3/5---------------------------------------------------------|

Bridge-Distortion
e|--------------------------------------------------------------------------|
B|--------------------------------------------------------------------------|
G|---7--7--7/9\7--6--6--6/7\5--4--4--4/5/7----------------------------------|
D|--------------------------------------------------------------------------|
A|---5--5--5/7\5--4--4--4/5\3--2--2--2/3/5----------------------------------|
E|--------------------------------------------------------------------------|

The bridge goes LIKE this its not exact so ill v2 this when ive got a guitar on me.
                            ************************************

                                    | /   slide up
                                    | \   slide down
                                    | h   hammer-on
                                    | p   pull-off
                                    | ~   vibrato
                                    | +   harmonic
                                    | x   Mute note
                                    | b   Bend
                                    | pb  Pre-bend
                                    | br  Bend release
                                    | pbr Pre-bend release
                                    | brb Bend release bend



Learned this song in one sitting, and I wrote the chords as best as I can hear
them. Standard tuning (C)


"Here And Now"

G				      Em
This fear has me chilled down to the bone
				    F	     C		      D
And I have been haunted by these things I still have left to say
G			     Em
I'm weary of fighting this alone
			      F		  C		D
So tired of holding onto strings much better left to fray


(chorus)

…and I said

G
Hear me now
		    Bm
Here and now I'm calling

Memories wear me down
	 C
And it seems so complicated
     Am
When all I want is just the truth


G			    Em
I'm wilted and faded after all
				    F        C		     D
Too strung out and burnt out to be half the man that I could be
G				Em
I'll never belong inside your world
				       F           C	       D
So black out the sun and leave me to play out the same old tragedy

…and I said

Hear me now

Here and now I'm calling

Memories wear me down

And this seems too complicated

When all I want is just the truth

Hear me now

Here and now I'm calling

Memories wear me out

And it seems too complicated

When all I want is just the truth

(bridge)

A# (6th fret)	        G   (repeat pattern)
You're my savior after all

Use your flame to guide me home

And then lay your hand on me



email for comments: seether_fan1369@yahoo.com



Tabbed by: madjoker8
Email:madjoker8@gmail.com

Ok, well this is my first tab so bear with me on this one. I watched Dale and Shaun play
and teach this themselves,
except the solo in the bridge/outro, so this should be almost 100%, if not sue me.
I haven't seen any other good tabs on this so i decided to help the people out. :P


Tuning:Whole Step down (DGCFAD)

Verse 1 (clean):

e|------3b----0-------0--3b-0-----3b---0-----------------------------------|
B|-------------0--3b---------------------0----3b--0------------------------|
G|--------------------------------------------------2--0-------------------|
D|-------------------------------------------------------------------------|
A|-------------------------------------------------------------------------|
E|----0-----0-----0------0-----0------0-------0-----0----------------------|
 |Guitar 1: Dale
e|-------------------------------------------------------------------------|
B|-------------------------------------------------------------------------|
G|------9------9------9------9-----9-----9-----9------9--------------------|
D|------x------x------x------x-----x-----x-----x------x--------------------|
A|------7------7------7------7-----7-----7-----7------7--------------------|
E|-------------------------------------------------------------------------|
  Guitar 2: Shaun




e|-------3b-----0-------0--3b-0--------------------------------------------|
B|----------------0--3b----------3--0--3h5-3-------------------------------|
G|--------------------------------------------4\2-0--2h3h4-----------------|
D|-------------------------------------------------------------------------|
A|-------------------------------------------------------------------------|
E|----0------0-------0-----0-----0-----------------------------------------|
 |Guitar 1:
e|-------------------------------------------------------------------------|
B|-------------------------------------------------------------------------|
G|-------9------9-----9----9-----------------------------------------------|
D|-------x------x-----x----x--------7-7-5-7----5---------------------------|
A|-------7------7-----7----7--------7-7-5-7----5---------------------------|
E|----------------------------------5-5-3-5----3---------------------------|
  Guitar 2:



e|------3b----0-------0--3b-0-----3b---0-----------------------------------|
B|-------------0--3b---------------------0----3b--0------------------------|
G|--------------------------------------------------2--0-------------------|
D|-------------------------------------------------------------------------|
A|-------------------------------------------------------------------------|
E|----0-----0-----0------0-----0------0-------------0----------------------|
 |Guitar 1: Dale
e|-------------------------------------------------------------------------|
B|-------------------------------------------------------------------------|
G|------9------9------9------9-----9-----9-----9------9--------------------|
D|------x------x------x------x-----x-----x-----x------x--------------------|
A|------7------7------7------7-----7-----7-----7------7--------------------|
E|-------------------------------------------------------------------------|
  Guitar 2: Shaun




e|-------3b-----0-------0--3b-0--------3h5-3-------------------------------|
B|----------------0--3b----------3--0---------3\2-0------------------------|
G|--------------------------------------------------2h3h4------------------|
D|-------------------------------------------------------------------------|
A|-------------------------------------------------------------------------|
E|----0------0-------0-----0-----0-----------------------------------------|
 |Guitar 1:
e|-------------------------------------------------------------------------|
B|-------------------------------------------------------------------------|
G|-------9------9-----9----9-----------------------------------------------|
D|-------x------x-----x----x--------7-7-5-7----5---------------------------|
A|-------7------7-----7----7--------7-7-5-7----5---------------------------|
E|----------------------------------5-5-3-5----3---------------------------|
  Guitar 2:


e|------3b----0-------0--3b-0-----3b---0-----------------------------------|
B|-------------0--3b---------------------0----3b--0------------------------|
G|--------------------------------------------------2--0-------------------|
D|-------------------------------------------------------------------------|
A|-------------------------------------------------------------------------|
E|----0-----0-----0------0-----0------0-------0-----0----------------------|
 |Guitar 1: Dale
e|-------------------------------------------------------------------------|
B|-------------------------------------------------------------------------|
G|------9------9------9------9-----9-----9-----9------9--------------------|
D|------9------9------9------9-----9-----9-----9------9--------------------|
A|------7------7------7------7-----7-----7-----7------7--------------------|
E|------7------7------7------7-----7-----7-----7------7--------------------|
  Guitar 2: Shaun




e|-------3b-----0-------0--3b-0--------------------------------------------|
B|----------------0--3b----------3--0--3h5-3-------------------------------|
G|--------------------------------------------4\2-0--2h3h4-----------------|
D|-------------------------------------------------------------------------|
A|-------------------------------------------------------------------------|
E|----0------0-------0-----0-----0-----------------------------------------|
 |Guitar 1:
e|-------------------------------------------------------------------------|
B|-------------------------------------------------------------------------|
G|-------9------9-----9----9-----------------------------------------------|
D|-------9------9-----9----9--------7-7-5-7----5---------------------------|
A|-------7------7-----7----7--------7-7-5-7----5---------------------------|
E|-------7------7-----7----7--------5-5-3-5----3---------------------------|
  Guitar 2:



e|------3b----0-------0--3b-0-----3b---0-----------------------------------|
B|-------------0--3b---------------------0----3b--0------------------------|
G|--------------------------------------------------2--0-------------------|
D|-------------------------------------------------------------------------|
A|-------------------------------------------------------------------------|
E|----0-----0-----0------0-----0------0-------------0----------------------|
 |Guitar 1: Dale
e|-------------------------------------------------------------------------|
B|-------------------------------------------------------------------------|
G|------9------9------9------9-----9-----9-----9------9--------------------|
D|------9------9------9------9-----9-----9-----9------9--------------------|
A|------7------7------7------7-----7-----7-----7------7--------------------|
E|------7------7------7------7-----7-----7-----7------7--------------------|
  Guitar 2: Shaun




e|-------3b-----0-------0--3b-0--------3h5-3-------------------------------|
B|----------------0--3b----------3--0---------3\2-0------------------------|
G|--------------------------------------------------2h3h4------------------|
D|-------------------------------------------------------------------------|
A|-------------------------------------------------------------------------|
E|----0------0-------0-----0-----0-----------------------------------------|
 |Guitar 1:
e|-------------------------------------------------------------------------|
B|-------------------------------------------------------------------------|
G|-------9------9-----9----9-----------------------------------------------|
D|-------9------9-----9----9--------7-7-5-7----5---------------------------|
A|-------7------7-----7----7--------7-7-5-7----5---------------------------|
E|-------7------7-----7----7--------5-5-3-5----3---------------------------|
  Guitar 2:



Pre-Chorus:



e|-------3----0------0--3-0-------3----0-----------------------------------|
B|--------------0--3---------------------0-3--0----------------------------|
G|----------------------------------------------2-0------------------------|
D|-------------------------------------------------------------------------|
A|-------------------------------------------------------------------------|
E|----3----3-------3----3-------5----5-----5----5--------------------------|
 |Guitar 1:
e|-------------------------------------------------------------------------|
B|-------------------------------------------------------------------------|
G|-------------------------------------------------------------------------|
D|------5----5----5----5----7----7----7----7-------------------------------|
A|------5----5----5----5----7----7----7----7-------------------------------|
E|------3----3----3----3----5----5----5----5-------------------------------|
  Guitar 2:



e|------3----0-----0--3-0--------------------------------------------------|
B|-------------0-3---------------------------------------------------------|
G|-------------------------------------------------------------------------|
D|-------------------------------------------------------------------------|
A|-------------------------------------------------------------------------|
E|----3----3-----3----3----------------------------------------------------|

e|-------------------------------------------------------------------------|
B|-------------------------------------------------------------------------|
G|-------------------------------------------------------------------------|
D|------5----5----5----5--7-7-5-7------------------------------------------|
A|------5----5----5----5--7-7-5-7------------------------------------------|
E|------3----3----3----3--5-5-3-5------5h6p5\3p0---------------------------|


From what i can tell there's only one guitar for the chorus.
Can't really tell how many times each chord is strummed so ill just tab it out

Chorus:

e|-------------------------------------------------------------------------|
B|-------------------------------------------------------------------------|
G|-----------------7----9--------------------------------------------------|
D|--2----5----7----7----9----2----5----7-----------------------------------|
A|--2----5----7----5----7----2----5----7-----------------------------------|
E|--0----3----5--------------0----3----5---5h6p5\3p0-----------------------|



Verse 2: same as verse 1
Chorus

Bridge
e|-------------------------------------------------------------------------|
B|-------------------------------------------------------------------------|
G|-------------------------------------------------------------------------|
D|---2-2------5--------5-----2-2------5-------5h7-7b-----------------------|
A|---2-2--5h7----7-5h7---7---2-2--5h7---7-5h7------------------------------|
E|---0-0---------------------0-0-------------------------------------------|

e|-------------------------------------------------------------------------|
B|-------------------------------------------------------------------------|
G|-------------------------------------------------------------------------|
D|---2-2------5--------5-----7-7-5-7---------------------------------------|
A|---2-2--5h7----7-5h7---7---7-7-5-7---------------------------------------|
E|---0-0---------------------5-5-3-5--5h6p5\3p0----------------------------|


e|-------------------------------------------------------------------------|
B|-------------------------------------------------------------------------|
G|-------------------------------------------------------------------------|
D|---2-2------5--------5-----2-2------5-------5h7-7b-----------------------|
A|---2-2--5h7----7-5h7---7---2-2--5h7---7-5h7------------------------------|
E|---0-0---------------------0-0-------------------------------------------|

e|-------------------------------------------------------------------------|
B|-------------------------------------------------------------------------|
G|-------------------------------------------------------------------------|
D|---2-2------5--------5-----7-7-5-7--5------------------------------------|
A|---2-2--5h7----7-5h7---7---7-7-5-7--5------------------------------------|
E|---0-0---------------------5-5-3-5--3------------------------------------|


Breakdown: again theyre strummed weird so ill just leave them here for you
e|-------------------------------------------------------------------------|
B|-------------------------------------------------------------------------|
G|----9------12-----14----17--16-------------------------------------------|
D|----x-------x------x-----x---x-------------------------------------------|
A|----7------10-----12----15--14-------------------------------------------|
E|-------------------------------------------------------------------------|

e|-------------------------------------------------------------------------|
B|-------------------------------------------------------------------------|
G|----9------12-----14---14-14-12-14---------------------------------------|
D|----x-------x------x----x--x--x--x---------------------------------------|
A|----7------10-----12---12-12-10-12---------------------------------------|
E|-------------------------------------------------------------------------|

Chorus x1
outro (just the bridge again) x1

well there you have it, my first tab for my favorite band's new single.
feedback is much appreciated so if you have any comments, questions or corrections feel
free to email me. catch you guys later
************************************

| /   slide up
| \   slide down
| h   hammer-on
| p   pull-off
| ~   vibrato
| +   harmonic
| x   Mute note
| b   Bend
| pb  Pre-bend
| br  Bend release
| pbr Pre-bend release
| brb Bend release bend



Firstly this tab does not belong to me, I watched a cover on
youtube and learned it from there. But no one has posted it so
i will, if you want to watch the video of the talented
guitarist who covered this go to
http://www.youtube.com/watch?v Qeg5zdo_4ZQ&feature related
I very much liked his cover and you might too.

Not 100 percent sure but due to Seethers history I play drop D.


Master of Disaster
Seether

Tuning DADGBe


Intro - Verse

e|------------------------------------------------------------|
B|------------------------------------------------------------|
G|------------------------------------------------------------|
D|-777777-999999-101010101010-12-10-9-------------------------|
A|-000000-000000--0-0-0-0-0-0--0--0-0-x2----------------------|
D|-000000-000000--0-0-0-0-0-0--0--0-0-------------------------|


e|------------------------------------------------------------|
B|------------------------------------------------------------|
G|------------------------------------------------------------|
D|-555555-777777-999999-777777--------------------------------|
A|-555555-555555-555555-555555-x2-----------------------------|
D|-555555-555555-555555-555555--------------------------------|

Pre-Chorus
(The number of times you strum is wrong here, but just listen
to the song you'll get it)

e|------------------------------------------------------------|
B|------------------------------------------------------------|
G|------------------------------------------------------------|
D|-3333333-2222222-3333333-2222222-5555555--------------------|
A|-3333333-0000000-3333333-2222222-5555555--------------------|
D|-3333333-0000000-3333333-2222222-5555555--------------------|


Chorus

e|------------------------------------------------------------|
B|------------------------------------------------------------|
G|------------------------------------------------------------|
D|-7777777-10101010101010-5555555-3333-2222-------------------|
A|-7777777-10101010101010-5555555-3333-2222-------------------|
D|-7777777-10101010101010-5555555-3333-2222-------------------|


e|------------------------------------------------------------|
B|------------------------------------------------------------|
G|------------------------------------------------------------|
D|-7777777-3333333-5555555-2222222-3333-----------------------|
A|-7777777-3333333-5555555-2222222-3333-----------------------|
D|-7777777-3333333-5555555-2222222-3333-----------------------|

Breakdown


e|------------------------------------------------------------|
B|------------------------------------------------------------|
G|------------------------------------------------------------|
D|-7777777-10101010101010-5555555-3333-2222----333-222-333-222|
A|-7777777-10101010101010-5555555-3333-2222-x3-333-222-333-222|
D|-7777777-10101010101010-5555555-3333-2222----333-222-333-222|

End on

e|----|
B|----|
G|----|
D|-7~-|
A|-7~-|
D|-7~-|



Intro x1

Verse x2
Steal my sight and then
Fill my mind with foreign words
To keep me wanting
And speak now, child
And chill my heart with all the hurt
And keep me suffering

Pre-Chorus x1
All these promises
Lectures and bold-faced lies
All these promises
Born of a shameless mind

Chorus x2
Leave me to heal on my own
With those empty cruel promises
You stole my dreams
Yeah all my dreams are dead inside
Please let me feel my way home
Without reason or compromise
You stole my dreams
Now all I believe is dead inside

Verse x1
Be quick now, child
And soil my bed with all your dirt
Just keep me suffering

Pre-Chorus x1
All these promises
Lectures and bold-faced lies
All these promises
Born of a shameless mind

Chorus x2
Leave me to heal on my own
With those empty cruel promises
You stole my dreams
Yeah all my dreams are dead inside
Please let me feel my way home
Without reason or compromise
You stole my dreams
Now all I believe is dead inside

Breakdown x1
Don’t let me sleep, take me back
But don’t let me be comfortable
If I get too weak (please let me feel my way home)
Cut no slack, and don’t let me be comfortable
Don’t let me sleep (please let me feel my way home)
Take me back, but don’t let me be comfortable

Chorus x2
Leave me to heal on my own
With those empty cruel promises
You stole my dreams
Yeah all my dreams are dead inside
Please let me feel my way home
Without reason or compromise
You stole my dreams
Now all I believe is dead inside

Chorus x1
If you say you’re alive (please let me feel my way home)
When you pray you’re alive
Oh you hate when I’m right (please let me feel my way home)
And you lay in the fire

End



Tabber:UH-HiloMOKES

Standard Tuning

Intro
Rhythm Guitar
e--------------------------------------|
b--------------------------------------|
g-44444444444444-666-------------------|
d-44444444444444-666-66666666-22222222-|
a-22222222222222-444-66666666-22222222-|
e--------------------44444444-00000000-|

Lead Guitar
e-----------------------------------------------------|
b-------2-4-4-4-4-4-4-4-4---4-4-4-4-2----2--4---------|
g-4-4-4--------------------------------4-------4--3-1-|
d-----------------------------------------------------|
a-----------------------------------------------------|
e-----------------------------------------------------|

Verse
Lead
e------------------------------------------------------------------|
b------------------------------------------------------------------|
g-----------6-6-8-8-8-8-8-8-8-6------------------------------------|
d-9-9-9-9-9---------------------9--6-6-6-6-6-----------------------|
a---------------------------------------------9--7-7-7-7-7-9-9-9-9-|
e------------------------------------------------------------------|

Rhythm
e------------------------------------|
b------------------------------------|
g-4444444444444444-------------------|
d-4444444444444444-66666666-22222222-|
a-2222222222222222-66666666-22222222-|
e------------------44444444-00000000-|

Pre-Chorus
Lead
e-------------------------------------------------------------------------------|
b-------------------------------------------------------------------------------|
g-4-4-4-4--4/6-6--6/8-8-8-8-8--8/9/8/6-13-13-13-13-13-11--9-9-9-9-9-11-11-11-11-|
d-x-x-x-x--x/x-x--x/x-x-x-x-x--x/x/x/x--x--x--x--x--x--x--x-x-x-x-x--x--x--x--x-|
a-2-2-2-2--2/4-4--4/6-6-6-6-6--6/7/6/4-11-11-11-11-11--9--7-7-7-7-7--9--9--9--9-|
e-------------------------------------------------------------------------------|

e--------------------------------------------------------|
b--------------------------------------------------------|
g-4-4-4-4--4/6-6--6/8-8-8-8-8--8/9/8/6-------------------|
d-x-x-x-x--x/x-x--x/x-x-x-x-x--x/x/x/x--7777777777777777-|
a-2-2-2-2--2/4-4--4/6-6-6-6-6--6/7/6/4--7777777777777777-|
e---------------------------------------5555555555555555-|

Rhythm
e---------------------------------------------------------------------|
b---------------------------------------------------------------------|
g---------------------------------------------------------------------|
d-6666666666666666-2222222222222222-6666666666666666-7777777777777777-|
a-6666666666666666-2222222222222222-6666666666666666-7777777777777777-|
e-4444444444444444-0000000000000000-4444444444444444-5555555555555555-|

Chorus
Lead
e---------------------------------------------------------------------|
b---------------------------------------------------------------------|
g-4-4-4-4-6-6-6-6-8-8-8-8-6-6-6-6-4-4-4-4-6-6-6-6-8-8-8-8-11-11-11-11-|
d-x-x-x-x-x-x-x-x-x-x-x-x-x-x-x-x-x-x-x-x-x-x-x-x-x-x-x-x--x--x--x--x-|
a-2-2-2-2-4-4-4-4-6-6-6-6-4-4-4-4-2-2-2-2-4-4-4-4-6-6-6-6--9--9--9--9-|
e---------------------------------------------------------------------|

e-----------------------------------------------------------------------------------------|
b-----------------------------------------------------------------------------------------|
g-9-9-9-9-11-11-11-11-13-13-13-13-11-11-11-11-9-9-9-9-11-11-11-11-13-13-13-13-16-16-16-16-|
d-x-x-x-x--x--x--x--x--x--x--x--x--x--x--x--x-x-x-x-x--x--x--x--x--x--x--x--x--x--x--x--x-|
a-7-7-7-7--9--9--9--9-11-11-11-11--9--9--9--9-7-7-7-7--9--9--9--9-11-11-11-11-14-14-14-14-|
e-----------------------------------------------------------------------------------------|

Rhythm
e----------------------------------------------------------------|
b----------------------------------------------------------------|
g-44444444444444444444-66666666666666666666----------------------|
d-44444444444444444444-66666666666666666666-77777777777777777777-|
a-22222222222222222222-44444444444444444444-77777777777777777777-|
e-------------------------------------------55555555555555555555-|

Verse
Pre-Chorus
Chorus

Bridge
e-----------------|
b-----------------|
g-6~------2~------|
d-6~--2~--2~--4~--| 2x
a-4~--2~--0~--4~--|
e-----0~------2~--|

Rhythm
e-------------------------------------|
b-------------------------------------|
g-66666666----------22222222----------|
d-66666666-22222222-22222222-44444444-|
a-44444444-22222222-00000000-44444444-|
e----------00000000----------22222222-|

Lead
e----------------------|
b-----------10~--9-7~--|
g-6~--8-9~-------------|
d----------------------|
a----------------------|
e----------------------|

e-------------------------------------|
b-------------------------------------|
g-9-9--9/11-11--11/13-13/11/9/8/6/4~--|
d-x-x--x/-x--x---x/-x--x/-x/x/x/x/x~--|
a-7-7--7/-9--9---9/11-11/-9/7/6/4/2~--|
e-------------------------------------|

Last Pre-Chorus
e-------------------------------------------------------|
b-------------------------------------------------------|
g-------------1---------------------------1-------------|
d-----2---4-----4-2-2h4p2---------2---4-----4-2-2h4p2---|
a---2---2---2-------------2-----2---2---2-------------2-|
e-0---------------------------0-------------------------|

Chorus
End on
e-----|
b-----|
g-----|
d-2~--|
a-2~--|
e-0~--|



-----------------------------------------------------------------------------
              Pass Slowly (not the acoustic version) - Seether
-----------------------------------------------------------------------------
Tabbed by: Kenny Ketcham

Tuning: Drop C

This is not the acoustic version, this is tabbed from me listening to the song that is
on the album.

Starts by positioning your fingers as if you were to play a C chord on an acoustic
guitar. Then almost like an Am on an acoustic. Then like
an F chord on an acoustic. If you start with your fingers in those
positions for the first three parts, you will be in the right area.
d|-------------------------------------------1----0-------------------------|
a|----1--0-------------3--1-----------------------------3--------------3----|
f|-----------0-------0---0--0----2-0--------2---2----2----2-----0-2-0--0----|
c|--2---2---2--2----2-2---2--2-------2-----3-3---3-----3---3---0-0---0-0----|
g|-3-3---3---3--3-----------------------------------------------------------|
c|--------------------------------------------------------------------------|

The chorus sounds to me like these simple power chords....
d|--------------------------------------------------------------------------|
a|--------------------------------------------------------------------------|
f|-5------2-----------------------------------------------------------------|
c|-5------2-------3------5--------------------------------------------------|
g|-3------0-------3------5--------------------------------------------------|
c|----------------3------5--------------------------------------------------|



-------------------------------------------------------------------------------
                             Fade Out - Seether
-------------------------------------------------------------------------------
Tabbed by: edfen7
Email:edfen7@gmail.com

Tuning:Drop D


Intro: 0 - 0:20
e|-------------------------------------------------------------------------|
B|-----------------------------------3-3-3-----3-3-3-----------------------|
G|-----------------------------------2-2-2-----2-2-2--4-4-4-----4-4-4------|
D|-4-4-4-x-x-4-4-4--4-4-4-x-x-4-4-4--0-0-0-x-x-0-0-0--4-4-4-x-x-4-4-4--2---|
A|-4-4-4-x-x-4-4-4--4-4-4-x-x-4-4-4--0-0-0-x-x-0-0-0--2-2-2-x-x-2-2-2--2---|
D|-4-4-4-x-x-4-4-4--4-4-4-x-x-4-4-4--0-0-0-x-x-0-0-0--------x-x--------2---|Repeat x2


Verse: 0:20 - 0:41
e|-------------------------------------------------------------------------------|
B|-----------------------------------------3-3-3-----3-3-3-----------------------|
G|-----------------------------------------2-2-2-----2-2-2--4-4-4-----4-4-4------|
D|-4-4-4-x-x-4-4-4--4-4-4-x-x-4-4-4--4-3-2-0-0-0-x-x-0-0-0--4-4-4-x-x-4-4-4--2---|
A|-4-4-4-x-x-4-4-4--4-4-4-x-x-4-4-4--4-3-2-0-0-0-x-x-0-0-0--2-2-2-x-x-2-2-2--2---|
D|-4-4-4-x-x-4-4-4--4-4-4-x-x-4-4-4--4-3-2-0-0-0-x-x-0-0-0--------x-x--------2---|Repeat x2


Pre-Chorus: 0:41 - 0:51
e|-------------------------------|
B|-------------------------------|
G|----------------------4---4----|
D|---4----4---4---4----4-4-4--2--|
A|--4--4-4-4-4--------2---2---2--|
D|-4----4---4-----------------2--|


Chorus: 0:51 - 1:13
e|--------------------------------------------------------------|
B|-------------------------------------------3-3-3-3-3-3-3------|
G|-4-4-4-4-4-4-4-----------------------------2-2-2-2-2-2-2------|
D|-4-4-4-4-4-4-4-4-4-4-4-4-4-4-5-5-5-5-5-5-5-0-0-0-0-0-0-0------|
A|-2-2-2-2-2-2-2-4-4-4-4-4-4-4-5-5-5-5-5-5-5-0-0-0-0-0-0-0------|
D|---------------4-4-4-4-4-4-4-5-5-5-5-5-5-5-0-0-0-0-0-0-0------|

e|--------------------------------------------------------------|
B|--------------------------------------------------------------|
G|-4-4-4-4-4-4-4------------------------------------------------|
D|-4-4-4-4-4-4-4-4-4-4-4-4-4-4-5-5-5-5-5-5-5-5-5-5-5-5-5-5------|
A|-2-2-2-2-2-2-2-4-4-4-4-4-4-4-5-5-5-5-5-5-5-5-5-5-5-5-5-5------|
D|---------------4-4-4-4-4-4-4-5-5-5-5-5-5-5-5-5-5-5-5-5-5------|


Post-Chorus: 1:13 - 1:23
e|-------------------------------------------------------------------------------|
B|-----------------------------------------3-3-3-----3-3-3-----------------------|
G|-----------------------------------------2-2-2-----2-2-2--4-4-4-----4-4-4------|
D|-4-4-4-x-x-4-4-4--4-4-4-x-x-4-4-4--4-3-2-0-0-0-x-x-0-0-0--4-4-4-x-x-4-4-4--2---|
A|-4-4-4-x-x-4-4-4--4-4-4-x-x-4-4-4--4-3-2-0-0-0-x-x-0-0-0--2-2-2-x-x-2-2-2--2---|
D|-4-4-4-x-x-4-4-4--4-4-4-x-x-4-4-4--4-3-2-0-0-0-x-x-0-0-0--------x-x--------2---|


Verse: 1:23 - 1:44
e|-------------------------------------------------------------------------------|
B|-----------------------------------------3-3-3-----3-3-3-----------------------|
G|-----------------------------------------2-2-2-----2-2-2--4-4-4-----4-4-4------|
D|-4-4-4-x-x-4-4-4--4-4-4-x-x-4-4-4--------0-0-0-x-x-0-0-0--4-4-4-x-x-4-4-4------|
A|-4-4-4-x-x-4-4-4--4-4-4-x-x-4-4-4--------0-0-0-x-x-0-0-0--2-2-2-x-x-2-2-2------|
D|-4-4-4-x-x-4-4-4--4-4-4-x-x-4-4-4--------0-0-0-x-x-0-0-0--------x-x------------|

e|-------------------------------------------------------------------------------|
B|-----------------------------------------3-3-3-----3-3-3-----------------------|
G|-----------------------------------------2-2-2-----2-2-2--4-4-4-----4-4-4------|
D|-4-4-4-x-x-4-4-4--4-4-4-x-x-4-4-4--4-3-2-0-0-0-x-x-0-0-0--4-4-4-x-x-4-4-4--2---|
A|-4-4-4-x-x-4-4-4--4-4-4-x-x-4-4-4--4-3-2-0-0-0-x-x-0-0-0--2-2-2-x-x-2-2-2--2---|
D|-4-4-4-x-x-4-4-4--4-4-4-x-x-4-4-4--4-3-2-0-0-0-x-x-0-0-0--------x-x--------2---|


Pre-Chorus: 01:44 - 1:56
e|-------------------------------|
B|-------------------------------|
G|----------------------4---4----|
D|---4----4---4---4----4-4-4--2--|
A|--4--4-4-4-4--------2---2---2--|
D|-4----4---4-----------------2--|


Chorus: 1:56 - 2:18
e|--------------------------------------------------------------|
B|-------------------------------------------3-3-3-3-3-3-3------|
G|-4-4-4-4-4-4-4-----------------------------2-2-2-2-2-2-2------|
D|-4-4-4-4-4-4-4-4-4-4-4-4-4-4-5-5-5-5-5-5-5-0-0-0-0-0-0-0------|
A|-2-2-2-2-2-2-2-4-4-4-4-4-4-4-5-5-5-5-5-5-5-0-0-0-0-0-0-0------|
D|---------------4-4-4-4-4-4-4-5-5-5-5-5-5-5-0-0-0-0-0-0-0------|

e|--------------------------------------------------------------|
B|--------------------------------------------------------------|
G|-4-4-4-4-4-4-4------------------------------------------------|
D|-4-4-4-4-4-4-4-4-4-4-4-4-4-4-5-5-5-5-5-5-5-5-5-5-5-5-5-5------|
A|-2-2-2-2-2-2-2-4-4-4-4-4-4-4-5-5-5-5-5-5-5-5-5-5-5-5-5-5------|
D|---------------4-4-4-4-4-4-4-5-5-5-5-5-5-5-5-5-5-5-5-5-5------|


Solo (Rhythm Guitar ONLY): 2:18 - 2:57

e|--------------------------------------------------------------|
B|------------------------------3-3-3-3-3-3-3-3-3-3-3-3-3-3-----|
G|------------------------------2-2-2-2-2-2-2-2-2-2-2-2-2-2-----|
D|-4-4-4-4-4-4-4-4-4-4-4-4-4-4--0-0-0-0-0-0-0-0-0-0-0-0-0-0-----|
A|-4-4-4-4-4-4-4-4-4-4-4-4-4-4--0-0-0-0-0-0-0-0-0-0-0-0-0-0-----|
D|-4-4-4-4-4-4-4-4-4-4-4-4-4-4--0-0-0-0-0-0-0-0-0-0-0-0-0-0-----|Repeat x4


Chorus: 2:57 - 3:40
e|--------------------------------------------------------------|
B|-------------------------------------------3-3-3-3-3-3-3------|
G|-4-4-4-4-4-4-4-----------------------------2-2-2-2-2-2-2------|
D|-4-4-4-4-4-4-4-4-4-4-4-4-4-4-5-5-5-5-5-5-5-0-0-0-0-0-0-0------|
A|-2-2-2-2-2-2-2-4-4-4-4-4-4-4-5-5-5-5-5-5-5-0-0-0-0-0-0-0------|
D|---------------4-4-4-4-4-4-4-5-5-5-5-5-5-5-0-0-0-0-0-0-0------|Repeat x3

e|--------------------------------------------------------------|
B|--------------------------------------------------------------|
G|-4-4-4-4-4-4-4------------------------------------------------|
D|-4-4-4-4-4-4-4-4-4-4-4-4-4-4-5-5-5-5-5-5-5-5-5-5-5-5-5-5------|
A|-2-2-2-2-2-2-2-4-4-4-4-4-4-4-5-5-5-5-5-5-5-5-5-5-5-5-5-5------|
D|---------------4-4-4-4-4-4-4-5-5-5-5-5-5-5-5-5-5-5-5-5-5------|


Ending: 3:40 - End
e|-------------------------------------------------------------------------------|
B|-------------------------------------------------------------------------------|
G|-------------------------------------------------------------------------------|
D|-4-4-4-x-x-4-4-4--4-4-4-x-x-4-4-4----4-4-4-x-x-4-4-4--4-4-4-x-x-4-4-4---4-4-4--|
A|-4-4-4-x-x-4-4-4--4-4-4-x-x-4-4-4----4-4-4-x-x-4-4-4--4-4-4-x-x-4-4-4---4-4-4--|
D|-4-4-4-x-x-4-4-4--4-4-4-x-x-4-4-4----4-4-4-x-x-4-4-4--4-4-4-x-x-4-4-4---4-4-4--|



Tabber:Seetherfan31

Key P pull off  H hammer on     / slide up      ~ vibrato       ^  bend up

    *  Palm Mute



INTRO
D------------------------------------|
A---3-3/5--2-------------------------|
F------------2h3-3/5-3-2-2h3p2-------|
C------------------------------5-----|
G------------------------------------|
C------------------------------------|

CHORUS
D-----------------------------------------| (you have to listen to the song for timing and
A-----------------------------------------|  how many times you play each note)
F-----------------------------------------|
C-----------------------------------------|
G--/5--8-7-8--4--/8-7-8---7h8-7-8---7-4---|
C-----------------------8---------7-------|

D-----------------------------------------|
A-----------------------------------------|
F-----------------------------------------|
C-----------------------------------------|
G-/5—5h7p5-4-4/12—12h13p12-10-------------|
C-----------------------------------------|

VERSE
D--------5---------------------------| (play 5 times)
A----------6----------8--------------|
F------7------------6----------------|
C----7------------5------------------|
G--5------------0--------------------|
C------------------------------------|

D-------1----------------------------|
A---------1----------5---------------|
F-----3------------6-----------------|
C---3------------5-------------------|
G-1------------0---------------------|
C------------------------------------|

PRE-BREAKDOWN
D------------------------------------|
A------------------------------------|
F------------------------------------|
C------------------------------------|
G------------------------------------|
C-0H12-12-12-0H12-12-12—12-10-15-----|

D------------------------------------|
A------------------------------------|
F------------------------------------|
C------------------------------------|
G------------------------------------|
C-0H12-12-12-0H12-12-12-12-8---------|


D------------------------------------|
A------------------------------------|
F------------------------------------|
C------------------------------------|
G------------------------------------|
C-0H12-12-12-0H12-12-12—12-10-15-----|


D------------------------------------|
A------------------------------------|
F------------------------------------|
C------------------------------------|
G------------------------------------|
C-8-8-8-8-10--5-5-5-5-7p5p3p0--------|

BREAKDOWN
D------------------------------------|
A------------------------------------|
F------------------------------------|
C-0H12-12-12-0H12-12-12-12-10-15-----|
G-0H12-12-12-0H12-12-12-12-10-15-----|
C-0H12-12-12-0H12-12-12—12-10-15-----|

D------------------------------------|
A------------------------------------|
F------------------------------------|
C-0H12-12-12-0H12-12-12-12-8---------|
G-0H12-12-12-0H12-12-12-12-8---------|
C-0H12-12-12-0H12-12-12-12-8---------|


D------------------------------------|
A------------------------------------|
F------------------------------------|
C-0H12-12-12-0H12-12-12-12-10-15-----|
G-0H12-12-12-0H12-12-12-12-10-15-----|
C-0H12-12-12-0H12-12-12—12-10-15-----|

D------------------------------------|
A------------------------------------|
F------------------------------------|
C-8-8-8-8-10--5-5-5-5-------0--------|
G-8-8-8-8-10--5-5-5-5-------0--------|
C-8-8-8-8-10--5-5-5-5-7p5p3p0--------|

“SOLO”
D--------------------------------------------------|
A--------------------------------------------------|
F—14-14-14-17-—12-12-12-14--10-10-10-12-—9-9-10P9--|
C------------------------------------------------12|
G--------------------------------------------------|
C--------------------------------------------------| X2

D------------------------------------| (the first two bends are Ѕ note bends, or bend
A—12^-10----10—10^-8----8^-6-5-------|  the 12th fret note to match the 13th fret note)
F--------12----------10--------7-----|
C------------------------------------|
G------------------------------------|
C------------------------------------|




POST BREAKFOWN
D------------------------------------|
A------------------------------------|
F------------8-----10----12----------|
C------0-----8-----10----12----------|
G------0-----6-----8-----10----------|
C—0-0--0--0-0---0-0---0-0------------|
  * *     * *   * *   * *

D------------------------------------|
A------------------------------------|
F------------------------------------|
C-8-8-8-8-10--5-5-5-5-------0--------|
G-8-8-8-8-10--5-5-5-5-------0--------|
C-8-8-8-8-10--5-5-5-5-7p5p3p0--------|

OUTRO
D------------------------------------|
A------------------------------------|
F------------8-----10----12----------|
C------0-----8-----10----12----------|
G------0-----6-----8-----10----------|
C—0-0--0--0-0---0-0---0-0------------| X3
  * *     * *   * *   * *

D---------------------------------------|
A---------------------------------------|
F---------------------------------------|
C-8-8-8-8-10--5-5-5-5-------0-----------|
G-8-8-8-8-10--5-5-5-5-------0-----------|
C-8-8-8-8-10--5-5-5-5-7-5-3-0-----------|
                      * * *



-------------------------------------------------------------------------------
                             DOWN - SEETHER
-------------------------------------------------------------------------------
Tabbed by: adamhero
Email: adam.metcalf@ymail.com

Tuning:CGCFAD
INTRO
D|---------------------------------------------------------------------------|
A|---------------------------------------------------------------------------|
F|---4H5P4----------4H5P4----------------------------------------------------|
C|--3------3-4-3---3------3-4-3--2-2-4P2-222-2-4P2/-7-7-9P7-777-7------------|
G|-4------4-------4------4-------2-2-----222-2----/-7-7-----777-7------------|
C|-------------------------------2-2-----222-2----/-7-7-----777-7------------|
   XXX    XX      XXX    XX      X X     XXX        X X     XXX LET RING
CHORUS
D|--------4444------4444------4444------4444---------------------------------|
A|--------4444------4444------4444------4444---------------------------------|
F|---6666-6666-6666-6666-6666-6666-6666-6666---444444-444444-666666-44444----|
C|---6666-6666-6666-6666-6666-6666-6666-6666---224444-224444-446666-22222----|
G|---4444-4444-4444-4444-4444-4444-4444-4444---222222-222222-444444-22222----|
C|---------------------------------------------222222-222222-444444-22222----|
VERSE
 (ON THE VERSE REPEAT THE INTRO BIT TWICE)
D|---------------------------------------------------------------------------|
A|----------------------------------------------------------------9+---------|
F|---4H5P4----------4H5P4-----------------------------------------9+---------|
C|--3------3-4-3---3------3-4B---2-2-4P2-222-2-4P2/-7-7-9P7-777---9+---------|
G|-4------4-------4------4-------2-2-----222-2----/-7-7-----777---9+---------|
C|-------------------------------2-2-----222-2----/-7-7-----777--------------|
   XXX    XX      XXX    XX      X X     XXX        X X     XXX
CHORUS
D|--------4444------4444------4444------4444---------------------------------|
A|--------4444------4444------4444------4444---------------------------------|
F|---6666-6666-6666-6666-6666-6666-6666-6666---444444-444444-666666-44444----|
C|---6666-6666-6666-6666-6666-6666-6666-6666---224444-224444-446666-22222----|
G|---4444-4444-4444-4444-4444-4444-4444-4444---222222-222222-444444-22222----|
C|---------------------------------------------222222-222222-444444-22222----|
BRIDGE
e|---------------------------------------------------------------------------|
B|---------------------------------------------------------------------------|
G|-6---6-5-4-4-2-1/4---3B----------------------------------------------------|
D|-6---6-3-2-4-2-1/4---3B----------------------------------------------------|
A|-4---4-3-2-4-2-1/4---3B----------------------------------------------------|
E|-------3-2-4-2-1/4---3B----------------------------------------------------|
                       SLOW BEND

NO SOLO OR SECOND GUITAR AS OF YET WILL UPDATE SOON AS I WORK IT OUT THE OUTRO IS JUST
THE CHORUS
PLAYED OVER A FEW TIMES IF I HAVE MISSED ANYTHING LET ME KNOW THANKS


************************************

| /   slide up
| \   slide down
| h   hammer-on
| p   pull-off
| ~   vibrato
| +   harmonic
| x   Mute note
| b   Bend
| pb  Pre-bend
| br  Bend release
| pbr Pre-bend release
| brb Bend release bend

************************************



Tabber:Blade9
Song:Desire for Need

D|-------------|
A|-------------|
F|-------------|
C|-------------|
G|--0-0---0-0--|
C|--0-0---0-0--|
    * *   * *

D|---------------------------------------------|
A|-------------------(4x)-----------------(4x)-|
F|---------------------5-----------------5-8---|
C|-3h5p3-0-0-0-0--3--0-5--3h5p3-0-0-0-0--5-8---|
G|-3h5p3-0-0-0-0--3--0-3--3h5p3-0-0-0-0--3-6---| rpt
C|-3h5p3-0-0-0-0--3--0----3h5p3-0-0-0-0--------|
           * *                    * *

D|--------------------------|
A|--------------------------|
F|--------------------------|
C|--------------------------|
G|-0-0---0-0----------------| 2x
C|-0-0---0-0----0-13-12-10v-|
   * *   * *

(figure strumming)
D|---------------------------------------------|
A|---------------------------------------------|
F|-----10----------10-----------13-----------9-|
C|-8-x-10-8--6-8-x-10-8--6-11-x-13-11--8-11--9-|
G|-8-x--8-8--6-8-x--8-8--6-11-x-11-11--8-11--7-|
C|-8-x--8-8--6-8-x--8-8--6-11-x-11-11--8-11--7-|

Bridge
D|---------------------------------------------------------------|
A|---------------------------------------------------------------|
F|---------------------------------------------------------------|
C|---------------------------------------------------------------|
G|---------5\------------------------------5\----------------(3)-|
C|-0-0-0-0-5\-0-0-0-6-5-0-3-5-3-0--0-0-0-0-5\-0-0-0-6-5-0-3-5----|

D|------------------------------------------------|
A|------------------------------------------------|
F|------------------------------------------------|
C|------------------------------------------------|
G|---------5\------------------------------5\-----|
C|-0-0-0-0-5\-0-0-0-6-5-0-3-5-3-0--0-0-0-0-5\-0-0-|

D|------------------------------------------------------|
A|-------------------(5x)--------------------(5x)-------|
F|-7-------10---------5------------------------5--------|
C|-7--6--7-10-10--11--5--0-0-0--6-5-0-3-5-3-0--5--0-0-0-|
G|-5--6--7--8-10--11--3--0-0-0--6-5-0-3-5-3-0--3--0-0-0-| 2x
C|----6--7----10--11-----0-0-0--6-5-0-3-5-3-0-----0-0-0-|
                         * * *                    * * *


D|----------------------------------------|
A|----------------------------------------|
F|-7-------10----------7------------------|
C|-7--6--7-10-10--11---7--5--6--7--12--10-|
G|-5--6--7--8-10--11---5--5--6--7--12--10-|
C|----6--7----10--11------5--6--7--12--10-|


Outro
D|--------(4X)-------|
A|-------------------|
F|-7-------10--------|
C|-7--6--7-10-10--11-|
G|-5--6--7--8-10--11-|
C|----6--7----10--11-|

D|----------------(2X)-----------------| |-end-|
A|-------------------------------------| |-----|
F|-7--5---------------7--5-----------6-| |-----|
C|-7--5--6--5--3--0---7--5--6--5--3--6-| |--0--|
G|-5--3--6--5--3--0---5--3--6--5--3--4-| |--0--|
C|-------6--5--3--0---------6--5--3----| |--0--|



Tabbed by: K&F
Email: tiagofcamaral@hotmail.com
This is my first tab, learned the song by ear, hope you enjoy it.
Help and constructive criticism are welcome.
Great song and my favorite band!

Song is played in Drop D + 1/2 step down.
Guitar 1: Troy McLawhorn
Guitar 2 & Vocals: Shaun Morgan

| ~  Vibrato
| x  Palm Mute Note
| / - slide up
| \ - slide down

A: [INTRO: Piano Intro tabbed out for Guitar]:
eb|-----------------------|
Bb|-10h11-13-11-10-11-11~-|
Gb|-----------------------|
Db|-----------------------|
Ab|-----------------------|
Db|-----------------------|

eb|-----------------------|
Bb|-10h11-13-11-10-11-11~-|
Gb|-----------------------|
Db|-----------------------|
Ab|-----------------------|
Db|-----------------------|

eb|-----------------------|
Bb|-10h11-13-11-10-11-11~-|
Gb|-----------------------|
Db|-----------------------|
Ab|-----------------------|
Db|-----------------------|

eb|-----------------------|
Bb|-10h11-13-11-10-8------|
Gb|-----------------------|
Db|-----------------------|
Ab|-----------------------|
Db|-----------------------|

B: [INTRO: Guitar]:
Guitar 1	X3				X4
Eb|------------------------------------||---------------------------------------|
Bb|------------------------------------||---------------------------------------|
Gb|*-----------------9-9-9-9-10-------*||-----------------9-9-9-9-10------------|
Db|*---------8-7-7-7------------10----*||---------8-7-7-7------------10-10/12---|
Ab|--7-5-5-5---------------------------||-7-5-5-5-------------------------------|
Db|------------------------------------||---------------------------------------|


C: [VERSE]:
eb|--------------------|
Bb|--------------------|
Gb|--------------------|  Repeat throughout the verse, listen to the song to
Db|-8----5----10/12----|  get the timing down.
Ab|--------------------|
Db|--------------------|


D: [CHORUS]:
  |		Guitar 1		   |
Eb|----------------------------------------|
Bb|----------------------------------------|
Gb|-------------------9-9-9-9-10-----------|
Db|----------8-7-7-7--------------10-------|
Ab|-7-5-5-5--------------------------------|
Db|----------------------------------------|
  |		Guitar 2		   |
Eb|----------------------------------------|----------------------------------------|
Bb|----------------------------------------|----------------------------------------|
Gb|-7-7-7-7-7-7-7-7-7----7-7-7-7-7-7-7-7-7-|----------------------------------------|
Db|-7-7-7-7-7-7-7-7-7-10-7-7-7-7-7-7-7-7-7-|-8-8-8-8-8-8-8-8-10-5-5-5-5-5-5-5-5-5---|
Ab|-5-5-5-5-5-5-5-5-5-10-5-5-5-5-5-5-5-5-5-|-8-8-8-8-8-8-8-8-10-5-5-5-5-5-5-5-5-5---|
Db|-------------------10-------------------|-8-8-8-8-8-8-8-8-10-5-5-5-5-5-5-5-5-5---|

  |		Guitar 1		   |
Eb|----------------------------------------|
Bb|----------------------------------------|
Gb|-------------------9-9-9-9-10-----------|
Db|----------8-7-7-7--------------10-------|
Ab|-7-5-5-5--------------------------------|
Db|----------------------------------------|
  |		Guitar 2		   |
Eb|----------------------------------------|----------------------------------------|
Bb|----------------------------------------|----------------------------------------|
Gb|-7-7-7-7-7-7-7-7-7----7-7-7-7-7-7-7-7-7-|----------------------------------------|
Db|-7-7-7-7-7-7-7-7-7-10-7-7-7-7-7-7-7-7-7-|-8-8-8-8-8-8-8-8-10-5-5-5-5-5-5-5-5-5---|
Ab|-5-5-5-5-5-5-5-5-5-10-5-5-5-5-5-5-5-5-5-|-8-8-8-8-8-8-8-8-10-5-5-5-5-5-5-5-5-5---|
Db|-------------------10-------------------|-8-8-8-8-8-8-8-8-10-5-5-5-5-5-5-5-5-5---|

  |		Guitar 1		   |
Eb|----------------------------------------|
Bb|----------------------------------------|
Gb|-------------------9-9-9-9-10-----------|
Db|----------8-7-7-7--------------10-------|
Ab|-7-5-5-5--------------------------------|
Db|----------------------------------------|
  |		Guitar 2		   |
Eb|----------------------------------------|----------------------------------------|
Bb|----------------------------------------|----------------------------------------|
Gb|-7-7-7-7-7-7-7-7-7----7-7-7-7-7-7-7-7-7-|----------------------------------------|
Db|-7-7-7-7-7-7-7-7-7-10-7-7-7-7-7-7-7-7-7-|-8-8-8-8-8-8-8-8-10-5-5-5-5-5-5-5-5-5---|
Ab|-5-5-5-5-5-5-5-5-5-10-5-5-5-5-5-5-5-5-5-|-8-8-8-8-8-8-8-8-10-5-5-5-5-5-5-5-5-5---|
Db|-------------------10-------------------|-8-8-8-8-8-8-8-8-10-5-5-5-5-5-5-5-5-5---|

  |		Guitar 1		   |
Eb|----------------------------------------|
Bb|----------------------------------------|
Gb|-------------------9-9-9-9-10-----------|
Db|----------8-7-7-7--------------10-10/12-|
Ab|-7-5-5-5--------------------------------|
Db|----------------------------------------|
  |		Guitar 2		   |
Eb|----------------------------------------|----------------------------------------|
Bb|----------------------------------------|----------------------------------------|
Gb|-7-7-7-7-7-7-7-7-7----7-7-7-7-7-7-7-7-7-|----------------------------------------|
Db|-7-7-7-7-7-7-7-7-7-10-7-7-7-7-7-7-7-7-7-|-8-8-8-8-8-8-8-8-10-5-5-5-5-5-5-5-5-5---|
Ab|-5-5-5-5-5-5-5-5-5-10-5-5-5-5-5-5-5-5-5-|-8-8-8-8-8-8-8-8-10-5-5-5-5-5-5-5-5-5---|
Db|-------------------10-------------------|-8-8-8-8-8-8-8-8-10-5-5-5-5-5-5-5-5-5---|

E: [Break/Bridge]:

Guitar 1
    x x x x x x x x x x
Eb|-------------------------|
Bb|-------------------------|
Gb|-------------------------| 2x
Db|-5-7-5-3-5-7-0-3-5-7-----| (Listen to the song to get the timing and the rhythm right)
Ab|-------------------------|
Db|-------------------------|

Guitar 2
Eb|----------------------------------------|
Bb|----------------------------------------|
Gb|-7-7-7-7-7-7-7-7-7----------------------|
Db|-7-7-7-7-7-7-7-7-7-10-10-10-10-10-10-10-|
Ab|-5-5-5-5-5-5-5-5-5-10-10-10-10-10-10-10-|
Db|-------------------10-10-10-10-10-10-10-|

|------------------------------------------|
|------------------------------------------| Just follow Shaun's singing
|------------------------------------------| to get the pattern and the
|-8-8-8-8-8-8-8-8-8-8-5-5-5-5-5-5-5-5-5-5--| rhythm down.
|-8-8-8-8-8-8-8-8-8-8-5-5-5-5-5-5-5-5-5-5--|
|-8-8-8-8-8-8-8-8-8-8-5-5-5-5-5-5-5-5-5-5--|

    So hold me        down!            If I feed I'm stronger  I don't feel no longer!

Eb|----------------------------------------|------------------------------------------|
Bb|----------------------------------------|------------------------------------------|
Gb|-7-7-7-7-7-7-7-7-7----------------------|------------------------------------------|
Db|-7-7-7-7-7-7-7-7-7-10-10-10-10-10-10-10-|-8-8-8-8-8-8-8-8-8-8-5-5-5-5-5-5-5-5-5-5--|
Ab|-5-5-5-5-5-5-5-5-5-10-10-10-10-10-10-10-|-8-8-8-8-8-8-8-8-8-8-5-5-5-5-5-5-5-5-5-5--|
Db|-------------------10-10-10-10-10-10-10-|-8-8-8-8-8-8-8-8-8-8-5-5-5-5-5-5-5-5-5-5--|
    So hold me        down!            If I feed I'm stronger  I don't feel no longer!

Guitar Intro again but this time play it 4 times:

F: [Second Intro Repeat]:

Both Guitars:
Eb|-----------------------------------|
Bb|-----------------------------------|
Gb|-----------------9-9-9-9-10--------|
Db|---------8-7-7-7------------10-----|
Ab|-7-5-5-5---------------------------|
Db|-----------------------------------|

Eb|-----------------------------------|
Bb|-----------------------------------|
Gb|-----------------9-9-9-9-10--------|
Db|---------8-7-7-7------------10-----|
Ab|-7-5-5-5---------------------------|
Db|-----------------------------------|

Eb|-----------------------------------|
Bb|-----------------------------------|
Gb|-----------------9-9-9-9-10--------|
Db|---------8-7-7-7------------10-----|
Ab|-7-5-5-5---------------------------|
Db|-----------------------------------|

Eb|-----------------------------------|
Bb|-----------------------------------|
Gb|-----------------9-9-9-9-10--------|
Db|---------8-7-7-7------------10-----|
Ab|-7-5-5-5---------------------------|
Db|-----------------------------------|

G: [Outro:]
(Played while the above apart is being played and Shaun is singing,
listen to the song to see what I mean)
eb|-----------------------|
Bb|-10h11-13-11-10-11-11~-| Repeat throughout this part.
Gb|-----------------------|
Db|-----------------------|
Ab|-----------------------|
Db|-----------------------|

Last time you hear it, it sounds something like this:

eb|---------------------------|
Bb|-10h11-13-13~-11-10-11-11~-| Just experiment, if you have a
Gb|---------------------------| better idea of how it's supposed to sound,
Db|---------------------------| send me a message/comment.
Ab|---------------------------|
Db|---------------------------|
End the song on the Piano Intro:

eb|-----------------------|
Bb|-10h11-13-11-10-11-11~-| 3x
Gb|-----------------------|
Db|-----------------------|
Ab|-----------------------|
Db|-----------------------|

Last time, play it like this:

eb|-------------------0---|
Bb|-10h11-13-11-10-11-10--|
Gb|-----------------------|
Db|-----------------------|
Ab|-----------------------|
Db|-----------------------|
comments
We did not receive enough feedback on this tab! Please rate:
1 2 3 4 5
I want to post or [tab]
guest
You may want to rate the tab now too:
select rating
Please do not post tabs as comments. Select "correction" instead!