Oops, an error
Loading. Please wait.

Needles Tab

ver2
ver2

Whole song

More versions @911Tabs.com
4,928 views 12 this week
1 commentread comment
1 2 3 4 5
accurate
x 3
Autoscroll
+/-
esc
set tempo
stop
Contributor
Difficulty
intermediate
WARNING: You are trying to view
                                    content from Ultimate-Guitar.com
                                    in an unauthorized application,
                                    which is prohibited.

                                    Please use an official Ultimate
                                    Guitar Tabs application for iPhone,
                                    iPad or Android to access legitimate
                                    chords, guitar, bass, and drum tabs
                                    from Ultimate-Guitar.com database.

                                    Type "ultimate guitar tabs" in Apple
                                    App Store's or Android Market's
                                    search to find the application.
-------------------------------------------------------------------------------
                             Needles - Seether
-------------------------------------------------------------------------------
Tabbed by: GreenAiden555
Email:greenaiden555@hotmail.com

Tuning:Drop D

Pretty easy song to learn. You shouldn't have that much trouble playing it. Read all the
at the bottom for a description of anything if you get confused.

Verse (Opens with slight, clean tone pick slide)
e|0----------------------------------------------------------------------------|
B|3----------------------------------------------------------------------------|
G|2--(Repeat, clean/chorus effect----------------------------------------------|
D|0----------------------------------------------------------------------------|
A|0-----------------------------------------------0-2-3-2p0--------------------|
D|0-----------------------------------------------0-2-3-2p0--------------------|
Pre Chorus 1(Guitar 1)
e|----------0-------------------------------------------------------------------|
B|----------3-------------------------------------------------------------------|
G|-------2--2--(Let this ring)---------5-(X5)-------5-----/7--------------------|
D|-------0--0--------------------------3-------rest-3-----/5--------------------|
A|--0--0-0--------------------0--(x5)--3------------3-(x3)/5--------------------|
D|--0--0-0--------------------0--------3------------3-----/5--------------------|

e|-------0---------------------------------------------------------------------|
B|-------3(Let this ring)---------5--------------------------------------------|
G|-----2-2----------------------5-5-5-5----------------------------------------|
D|-----0-0----------------------3-3-3-3----------------------------------------|
A|-0-0-0-----------------0-(x5)----------0-2-3-2p0-----------------------------|
D|-0-0-0-----------------0---------------0-2-3-2p0-----------------------------|
Ends the Pre Chorus for Guitar one. Just repeat, then when you get to the whole D5, E5,
section for the second time, turn on the distortion.

Pre Chorus 2( Heavily Distorted)/Pre Chorus 1 (guitar two)/Backing Solo
e|-----------------------------------------------------------------------------|
B|-----------------------------------------------------------------------------|
G|-----------------------------------------------------------------------------|
D|-----------------------------------------------------------------------------|
A|--0(Repeat as needed)---3(Repeat as needed)/5--------------------------------|
D|--0---------------------3------------------/5--------------------------------|
                   Optional P.M for second chorus/backing solo for F5 and G5
e|-----------------------------------------------------------------------------|
B|-----------------------------------------------------------------------------|
G|-----------------------------------------------------------------------------|
D|-----------------------------------------------------------------------------|
A|-0(Repeat as needed)10(as needed)0-2-3-2p0-----------------------------------|
D|-0------------------10-----------0-2-3-2p0-----------------------------------|

Chorus (Heavily Distorted)
e|-----------------------------------------------------------------------------|
B|-----------------------------------------------------------------------------|
G|----------------------------------5------------------------------------------|
D|-0-0-xx-3p0---------------------5-5-5-5--5-5---1-1-1---(Repeat 4 times)------|
A|-0-0-xx-3p0--(Repeat as needed)-3-3-3-3--5-5---1-1-1-------------------------|
D|-0-0-xx-3p0------------------------------5-5---1-1-1-------------------------|
                                                 . . .
Bridge
e|-----------------------------------------------------------------------------|
B|-----------------------------------------------------------------------------|
G|-----------------------------------------------------------------------------|
D|1-----0-(Repeat 2 for song/how ever many times as you wish)------------------|
A|1(x6)-0----------------------------------------------------------------------|
D|1-----0----------------------------------------------------------------------|
  .
Repeat this section for the bridge after Shaun yells "FUCK YOU FOR KILLING ME!" twice.
e|--------------------------------------------------------------------------------|
B|--------------------------------------------------------------------------------|
G|---------------------------4/6--------------------------------------------------|
D|--------------------------------------------------------------------------------|
A|0-0--xx--3\22(Repeat)00-xx-2/4---1----0-0--xx-3\22---1(x6)----------------------|
D|0-0--xx--3\22--------00-xx-------1----0-0--xx-3\22---1--------------------------|
                                                       .
Okay, here's some little tid bits 'bout the song...

- The part labeled "
Pre Chorus 2( Heavily Distorted)/Pre Chorus 1 (guitar two)/Backing Solo" is used first
the second guitar playing the pre chorus the first time, it's then used as the man rhy.
for the second time you play the pre chorus, and it's also played behind the solo(which 
probably won't have tabbed out anytime soon).

- This is my first time tabbing something out, so bare with me for mistakes.
-I've been playing guitar for two years, so it's mostly accurate (if not 90%). The only
that may be off is the rhythm for the Dsus chord you play for the verses and the number
times you play the F5 with the G string, and G5 with the G string, and a few other areas.

-I'll update and change a few things as time goes on.
-Rate it high!

| /  slide up
| \  slide down
| h  hammer-on
| p  pull-off
| ~  vibrato
| +  harmonic
| x  Mute note
| . Palm Mute
===============================================================================
comments
We did not receive enough feedback on this tab! Please rate:
print report bad tab
1 2 3 4 5
1 comment total.
0 reply
phasesevenfold wrote on October 10 2008, 11:24 am

fairly hard to read. Everything's right but come on bro don't be lazy; type everything out or copy/paste it.

*****

I want to post or [tab]
guest
You may want to rate the tab now too:
select rating
Please do not post tabs as comments. Select "correction" instead!