Oops, an error
Loading. Please wait.

Remedy Tab

ver6
ver6
More versions @911Tabs.com
11,284 views 21 this week
2 commentsread comments
1 2 3 4 5
excellent!
x 2
Autoscroll
+/-
esc
set tempo
stop
Contributor
Difficulty
Tuning
novice
D A D G B E
WARNING: You are trying to view
                                    content from Ultimate-Guitar.com
                                    in an unauthorized application,
                                    which is prohibited.

                                    Please use an official Ultimate
                                    Guitar Tabs application for iPhone,
                                    iPad or Android to access legitimate
                                    chords, guitar, bass, and drum tabs
                                    from Ultimate-Guitar.com database.

                                    Type "ultimate guitar tabs" in Apple
                                    App Store's or Android Market's
                                    search to find the application.
Artist/Band - Seether
Album - Karma And Effect
Song - Remedy


=======
GUITAR:
=======

Tuning: Drop Db (Db Ab Db Gb Bb Eb)

Key:
/  = Slide Up
\  = Slide Downwards
h  = Hammer on
p  = Pull Off
~  = Ring String
<> = Harmonic
x  = Mute String
b  = Bend String


INTRO/PART 1:
------------

Guitar 1:
Eb]-------------------------------------------------|
Bb]-------------------------------------------------|
Gb]-------------------------------------------------|
Db]--2--0-2-2-0-5-2--0-2-2-0-5-2--0-2-2-0-5-2--0-2--|
Ab]--2--0-2-2-0-5-2--0-2-2-0-5-2--0-2-2-0-5-2--0-2--|
Db]--2--0-2-2-0-5-2--0-2-2-0-5-2--0-2-2-0-5-2--0-2--|

Guitar 2:
Eb]-----------|
Bb]-----------|
Gb]------<5>--|
Db]--<5>------|
Ab]-----------|
Db]-----------|

(Drums & Bass Come In)


INTRO/PART 2:
------------

Guitar 1:
Eb]---------------------------------------------------------|
Bb]---------------------------------------------------------|
Gb]---------------------------------------------------------|
Db]--2--0-2-2-0-5-2--0-2-2-0-5-2--0-2-2-0-5-2--0-2-2-0-5-2--|
Ab]--2--0-2-2-0-5-2--0-2-2-0-5-2--0-2-2-0-5-2--0-2-2-0-5-2--|
Db]--2--0-2-2-0-5-2--0-2-2-0-5-2--0-2-2-0-5-2--0-2-2-0-5-2--|

Eb]------------------------------------------------------|
Bb]------------------------------------------------------|
Gb]------------------------------------------------------|
Db]--0-2-2-0-5-2--0-2-2-0-5-2--0-2-2-0-5-2--0-2-2-0-5-2--|
Ab]--0-2-2-0-5-2--0-2-2-0-5-2--0-2-2-0-5-2--0-2-2-0-5-2--|
Db]--0-2-2-0-5-2--0-2-2-0-5-2--0-2-2-0-5-2--0-2-2-0-5-2--|

Guitar 2:
Eb]-----------------------------------------------------------|
Bb]--12b-12-12p10-9/10--12b-12-12p10-9/10--12b-12-12p10-9/10--|
Gb]-----------------------------------------------------------|
Db]-----------------------------------------------------------|
Ab]-----------------------------------------------------------|
Db]-----------------------------------------------------------|

Eb]--12--12-12-12\10-9--|
Bb]--12--12-12----------|
Gb]---------------------|
Db]---------------------|
Ab]---------------------|
Db]---------------------|


VERSE 1/PART 1:
--------------

Guitar 1:
Eb]--------------------------------------|
Bb]--------------------------------------|
Gb]--------------------------------------|
Db]------2--------0--------2--------5----|
Ab]----2---2----0---0----2---2----5---5--|
Db]--2--------0--------2--------5--------|

Eb]--------------------------------------|
Bb]--------------------------------------|
Gb]--------------------------------------|
Db]------2--------0--------2--------5----|
Ab]----2---2----0---0----2---2----5---5--|
Db]--2--------0--------2--------5--------|

Eb]--------------------------------------|
Bb]--------------------------------------|
Gb]--------------------------------------|
Db]------2--------0--------2--------5----|
Ab]----2---2----0---0----2---2----5---5--|
Db]--2--------0--------2--------5--------|

Eb]--------------------------------------|
Bb]--------------------------------------|
Gb]--------------------------------------|
Db]------2--------0--------2--------5----|
Ab]----2---2----0---0----2---2----5---5--|
Db]--2--------0--------2--------5--------|


VERSE 1/PART 2:
--------------

Guitar 1:
Eb]--------------------------------------|
Bb]--------------------------------------|
Gb]--------------------------------------|
Db]------2--------0--------2--------5----|
Ab]----2---2----0---0----2---2----5---5--|
Db]--2--------0--------2--------5--------|

Eb]--------------------------------------|
Bb]--------------------------------------|
Gb]--------------------------------------|
Db]------2--------0--------2--------5----|
Ab]----2---2----0---0----2---2----5---5--|
Db]--2--------0--------2--------5--------|

Eb]--------------------------------------|
Bb]--------------------------------------|
Gb]--------------------------------------|
Db]------2--------0--------2--------5----|
Ab]----2---2----0---0----2---2----5---5--|
Db]--2--------0--------2--------5--------|

Eb]--------------------------------------|
Bb]--------------------------------------|
Gb]--------------------------------------|
Db]------2--------0--------2--------5----|
Ab]----2---2----0---0----2---2----5---5--|
Db]--2--------0--------2--------5--------|

Guitar 2:
Eb]--------------------------------------|
Bb]------12b~----------------------------|
Gb]--------------------------------------|
Db]--14~---------------------------------|
Ab]--------------------------------------|
Db]--------------------------------------|

Eb]--------------------------------------|
Bb]--------------------------------------|
Gb]--------------------------------------|
Db]--------------------------------------|
Ab]--------------------------------------|
Db]--------------------------------------|

Eb]--------------------------------------|
Bb]------12b~----------------------------|
Gb]--------------------------------------|
Db]--14~---------------------------------|
Ab]--------------------------------------|
Db]--------------------------------------|

Eb]--------------------------------------|
Bb]--------------------------------------|
Gb]--------------------------------------|
Db]--------------------------------------|
Ab]--------------------------------------|
Db]--------------------------------------|


PRE-CHORUS:
----------

Guitar 1:
Eb]-----------------------------|
Bb]-----------------------------|
Gb]-----------------------------|
Db]--7-7-7-7-7-7-7-7---2-2-2-2--|
Ab]--7-7-7-7-7-7-7-7---2-2-2-2--|
Db]--7-7-7-7-7-7-7-7---2-2-2-2--|

Guitar 2:
Eb]-----------|
Bb]-----------|
Gb]------<5>--|
Db]--<5>------|
Ab]-----------|
Db]-----------|


CHORUS:
------

Guitar 1 & 2:
Eb]-----------------------------------------------------|
Bb]-----------------------------------------------------|
Gb]-----------------------------------------------------|
Db]--2--0-2-2-0-5-2--0-2-2-0-5-2--0-2-2-0-5-7--7-7-7-5--|
Ab]--2--0-2-2-0-5-2--0-2-2-0-5-2--0-2-2-0-5-7--7-7-7-5--|
Db]--2--0-2-2-0-5-2--0-2-2-0-5-2--0-2-2-0-5-7--7-7-7-5--|

Eb]-----------------------------------------------------|
Bb]-----------------------------------------------------|
Gb]-----------------------------------------------------|
Db]--2--0-2-2-0-5-2--0-2-2-0-5-2--0-2-2-0-5-7--7-7-7-5--|
Ab]--2--0-2-2-0-5-2--0-2-2-0-5-2--0-2-2-0-5-7--7-7-7-5--|
Db]--2--0-2-2-0-5-2--0-2-2-0-5-2--0-2-2-0-5-7--7-7-7-5--|


VERSE 2:
-------

Guitar 1:
Eb]--------------------------------------|
Bb]--------------------------------------|
Gb]--------------------------------------|
Db]------2--------0--------2--------5----|
Ab]----2---2----0---0----2---2----5---5--|
Db]--2--------0--------2--------5--------|

Eb]--------------------------------------|
Bb]--------------------------------------|
Gb]--------------------------------------|
Db]------2--------0--------2--------5----|
Ab]----2---2----0---0----2---2----5---5--|
Db]--2--------0--------2--------5--------|

Eb]--------------------------------------|
Bb]--------------------------------------|
Gb]--------------------------------------|
Db]------2--------0--------2--------5----|
Ab]----2---2----0---0----2---2----5---5--|
Db]--2--------0--------2--------5--------|

Eb]--------------------------------------|
Bb]--------------------------------------|
Gb]--------------------------------------|
Db]------2--------0--------2--------5----|
Ab]----2---2----0---0----2---2----5---5--|
Db]--2--------0--------2--------5--------|

Eb]--------------------------------------|
Bb]--------------------------------------|
Gb]--------------------------------------|
Db]------2--------0--------2--------5----|
Ab]----2---2----0---0----2---2----5---5--|
Db]--2--------0--------2--------5--------|

Eb]--------------------------------------|
Bb]--------------------------------------|
Gb]--------------------------------------|
Db]------2--------0--------2--------5----|
Ab]----2---2----0---0----2---2----5---5--|
Db]--2--------0--------2--------5--------|

Eb]--------------------------------------|
Bb]--------------------------------------|
Gb]--------------------------------------|
Db]------2--------0--------2--------5----|
Ab]----2---2----0---0----2---2----5---5--|
Db]--2--------0--------2--------5--------|

Eb]--------------------------------------|
Bb]--------------------------------------|
Gb]--------------------------------------|
Db]------2--------0--------2--------5----|
Ab]----2---2----0---0----2---2----5---5--|
Db]--2--------0--------2--------5--------|

Guitar 2:
Eb]--------------------------------------|
Bb]------12b~----------------------------|
Gb]--------------------------------------|
Db]--14~---------------------------------|
Ab]--------------------------------------|
Db]--------------------------------------|

Eb]--------------------------------------|
Bb]--------------------------------------|
Gb]--------------------------------------|
Db]--------------------------------------|
Ab]--------------------------------------|
Db]--------------------------------------|

Eb]--------------------------------------|
Bb]------12b~----------------------------|
Gb]--------------------------------------|
Db]--14~---------------------------------|
Ab]--------------------------------------|
Db]--------------------------------------|

Eb]--------------------------------------|
Bb]--------------------------------------|
Gb]--------------------------------------|
Db]--------------------------------------|
Ab]--------------------------------------|
Db]--------------------------------------|

Eb]--------------------------------------|
Bb]------12b~----------------------------|
Gb]--------------------------------------|
Db]--14~---------------------------------|
Ab]--------------------------------------|
Db]--------------------------------------|

Eb]--------------------------------------|
Bb]--------------------------------------|
Gb]--------------------------------------|
Db]--------------------------------------|
Ab]--------------------------------------|
Db]--------------------------------------|

Eb]--------------------------------------|
Bb]------12b~----------------------------|
Gb]--------------------------------------|
Db]--14~---------------------------------|
Ab]--------------------------------------|
Db]--------------------------------------|

Eb]--------------------------------------|
Bb]--------------------------------------|
Gb]--------------------------------------|
Db]--------------------------------------|
Ab]--------------------------------------|
Db]--------------------------------------|


PRE-CHORUS:
----------

Guitar 1:
Eb]-----------------------------|
Bb]-----------------------------|
Gb]-----------------------------|
Db]--7-7-7-7-7-7-7-7---2-2-2-2--|
Ab]--7-7-7-7-7-7-7-7---2-2-2-2--|
Db]--7-7-7-7-7-7-7-7---2-2-2-2--|

Guitar 2:
Eb]-----------|
Bb]-----------|
Gb]------<5>--|
Db]--<5>------|
Ab]-----------|
Db]-----------|

CHORUS:
------

Guitar 1 & 2:
Eb]-----------------------------------------------------|
Bb]-----------------------------------------------------|
Gb]-----------------------------------------------------|
Db]--2--0-2-2-0-5-2--0-2-2-0-5-2--0-2-2-0-5-7--7-7-7-5--|
Ab]--2--0-2-2-0-5-2--0-2-2-0-5-2--0-2-2-0-5-7--7-7-7-5--|
Db]--2--0-2-2-0-5-2--0-2-2-0-5-2--0-2-2-0-5-7--7-7-7-5--|

Eb]-----------------------------------------------------|
Bb]-----------------------------------------------------|
Gb]-----------------------------------------------------|
Db]--2--0-2-2-0-5-2--0-2-2-0-5-2--0-2-2-0-5-7--7-7-7-5--|
Ab]--2--0-2-2-0-5-2--0-2-2-0-5-2--0-2-2-0-5-7--7-7-7-5--|
Db]--2--0-2-2-0-5-2--0-2-2-0-5-2--0-2-2-0-5-7--7-7-7-5--|

Eb]-----------------------------------------------------|
Bb]-----------------------------------------------------|
Gb]-----------------------------------------------------|
Db]--2--0-2-2-0-5-2--0-2-2-0-5-2--0-2-2-0-5-7--7-7-7-5--|
Ab]--2--0-2-2-0-5-2--0-2-2-0-5-2--0-2-2-0-5-7--7-7-7-5--|
Db]--2--0-2-2-0-5-2--0-2-2-0-5-2--0-2-2-0-5-7--7-7-7-5--|

Eb]-----------------------------------------------------|
Bb]-----------------------------------------------------|
Gb]-----------------------------------------------------|
Db]--2--0-2-2-0-5-2--0-2-2-0-5-2--0-2-2-0-5-7--7-7-7-5--|
Ab]--2--0-2-2-0-5-2--0-2-2-0-5-2--0-2-2-0-5-7--7-7-7-5--|
Db]--2--0-2-2-0-5-2--0-2-2-0-5-2--0-2-2-0-5-7--7-7-7-5--|


BRIDGE:
------

Guitar 1:
Eb]-----------------------------------------|
Bb]-----------------------------------------|
Gb]-----------------------------------------|
Db]--33333333--22222222--33333333--2222222--|
Ab]--33333333--00000000--33333333--2222222--|
Db]--------------------------------2222222--|

Eb]-----------------------------------------|
Bb]-----------------------------------------|
Gb]-----------------------------------------|
Db]--33333333--22222222--33333333--2222222--|
Ab]--33333333--00000000--33333333--2222222--|
Db]--------------------------------2222222--|

Guitar 1 (No distortion):
Eb]-------------------------------------------------|
Bb]-------------------------------------------------|
Gb]-------------------------------------------------|
Db]--2--0-2-2-0-5-2--0-2-2-0-5-2--0-2-2-0-5-2--0-2--|
Ab]--2--0-2-2-0-5-2--0-2-2-0-5-2--0-2-2-0-5-2--0-2--|
Db]--2--0-2-2-0-5-2--0-2-2-0-5-2--0-2-2-0-5-2--0-2--|

Guitar 2:
Eb]-----------|
Bb]-----------|
Gb]------<5>--|
Db]--<5>------|
Ab]-----------|
Db]-----------|

(Drums & Bass Come In)


INTERLUDE/SOLO:
--------------

Guitar 1:
Eb]---------------------------------------------------------|
Bb]---------------------------------------------------------|
Gb]---------------------------------------------------------|
Db]--2--0-2-2-0-5-2--0-2-2-0-5-2--0-2-2-0-5-2--0-2-2-0-5-2--|
Ab]--2--0-2-2-0-5-2--0-2-2-0-5-2--0-2-2-0-5-2--0-2-2-0-5-2--|
Db]--2--0-2-2-0-5-2--0-2-2-0-5-2--0-2-2-0-5-2--0-2-2-0-5-2--|

Guitar 2:
Eb]-----------------------------------------------------------|
Bb]--12b-12-12p10-9/10--12b-12-12p10-9/10--12b-12-12p10-9/10--|
Gb]-----------------------------------------------------------|
Db]-----------------------------------------------------------|
Ab]-----------------------------------------------------------|
Db]-----------------------------------------------------------|

Eb]--12--12-12-12\10-9--|
Bb]--12--12-12----------|
Gb]---------------------|
Db]---------------------|
Ab]---------------------|
Db]---------------------|

Guitar 1:
Eb]---------------------------------------------------------|
Bb]---------------------------------------------------------|
Gb]---------------------------------------------------------|
Db]--2--0-2-2-0-5-2--0-2-2-0-5-2--0-2-2-0-5-2--0-2-2-0-5-2--|
Ab]--2--0-2-2-0-5-2--0-2-2-0-5-2--0-2-2-0-5-2--0-2-2-0-5-2--|
Db]--2--0-2-2-0-5-2--0-2-2-0-5-2--0-2-2-0-5-2--0-2-2-0-5-2--|

Guitar 2:
Eb]------------------------------------------------|
Bb]--12qb\9--12qb/9--12qb/9--12qb/9--12qb/9--9-10--|
Gb]------------------------------------------------|
Db]------------------------------------------------|
Ab]------------------------------------------------|
Db]------------------------------------------------|

Eb]-----------------------------------9\10-12--|
Bb]--12qb\9--12qb/9--12qb/9--12qb/9---12---12--|
Gb]--------------------------------------------|
Db]--------------------------------------------|
Ab]--------------------------------------------|
Db]--------------------------------------------|


OUTRO CHORUS:
------------

Guitar 1 & 2:
Eb]-----------------------------------------------------|
Bb]-----------------------------------------------------|
Gb]-----------------------------------------------------|
Db]--2--0-2-2-0-5-2--0-2-2-0-5-2--0-2-2-0-5-7--7-7-7-5--|
Ab]--2--0-2-2-0-5-2--0-2-2-0-5-2--0-2-2-0-5-7--7-7-7-5--|
Db]--2--0-2-2-0-5-2--0-2-2-0-5-2--0-2-2-0-5-7--7-7-7-5--|

Eb]-----------------------------------------------------|
Bb]-----------------------------------------------------|
Gb]-----------------------------------------------------|
Db]--2--0-2-2-0-5-2--0-2-2-0-5-2--0-2-2-0-5-7--7-7-7-5--|
Ab]--2--0-2-2-0-5-2--0-2-2-0-5-2--0-2-2-0-5-7--7-7-7-5--|
Db]--2--0-2-2-0-5-2--0-2-2-0-5-2--0-2-2-0-5-7--7-7-7-5--|

Eb]-----------------------------------------------------|
Bb]-----------------------------------------------------|
Gb]-----------------------------------------------------|
Db]--2--0-2-2-0-5-2--0-2-2-0-5-2--0-2-2-0-5-7--7-7-7-5--|
Ab]--2--0-2-2-0-5-2--0-2-2-0-5-2--0-2-2-0-5-7--7-7-7-5--|
Db]--2--0-2-2-0-5-2--0-2-2-0-5-2--0-2-2-0-5-7--7-7-7-5--|

Eb]-----------------------------------------------------|
Bb]-----------------------------------------------------|
Gb]-----------------------------------------------------|
Db]--2--0-2-2-0-5-2--0-2-2-0-5-2--0-2-2-0-5-7--7-7-7-5--|
Ab]--2--0-2-2-0-5-2--0-2-2-0-5-2--0-2-2-0-5-7--7-7-7-5--|
Db]--2--0-2-2-0-5-2--0-2-2-0-5-2--0-2-2-0-5-7--7-7-7-5--|

--------------------------------------------------------------------------------
comments
We did not receive enough feedback on this tab! Please rate:
print report bad tab
1 2 3 4 5
2 comments total.
0 reply
WhiteZombieKidd wrote on December 19 2007, 08:33 pm

good for beginers and sounds close

0 reply
littleman2236 wrote on September 9 2008, 08:26 pm

Nice.. sounds good and easy for beginners

I want to post or [tab]
guest
You may want to rate the tab now too:
select rating
Please do not post tabs as comments. Select "correction" instead!