Oops, an error
Loading. Please wait.

Rise Above This Bass Tab

ver2
ver2

Whole song

Interactive

More versions @911Tabs.com
7,346 views 6 this week
4 commentsread comments
1 2 3 4 5
worth learning
x 4
Autoscroll
+/-
esc
set tempo
stop
Contributor
Difficulty
novice
Hey! There's an official Ultimate Guitar app which is ideal
for learning songs when you're away from computer. Get the app
WARNING: You are trying to view
                                    content from Ultimate-Guitar.com
                                    in an unauthorized application,
                                    which is prohibited.

                                    Please use an official Ultimate
                                    Guitar Tabs application for iPhone,
                                    iPad or Android to access legitimate
                                    chords, guitar, bass, and drum tabs
                                    from Ultimate-Guitar.com database.

                                    Type "ultimate guitar tabs" in Apple
                                    App Store's or Android Market's
                                    search to find the application.
Standard Tuning: E A D G

This is not the actual tab, but it sounds nicer when played since it uses chords, not 
notes :)


2 bars of drum - rest.

Intro:
G|-6-6-6-6-6-6-6-6-6-6-6-6-6-6-6-6-6-6-6-6-6-6-6-6-6-6-6-6-6-6-6-6-|
D|-6-6-6-6-6-6-6-6-6-6-6-6-6-6-6-6-6-6-6-6-6-6-6-6-6-6-6-6-6-6-6-6-|
A|-4-4-4-4-4-4-4-4-4-4-4-4-4-4-4-4-4-4-4-4-4-4-4-4-4-4-4-4-4-4-4-4-|
E|-----------------------------------------------------------------|

G|-6-6-6-6-6-6-6-6-6-6-6-6-6-6-6-6-6-6-6-6-6-6-6-6-6-6-6-6-6-6-6-6-|
D|-4-4-4-4-4-4-4-4-4-4-4-4-4-4-4-4-4-4-4-4-4-4-4-4-4-4-4-4-4-4-4-4-|
A|-----------------------------------------------------------------|
E|-----------------------------------------------------------------|


Verse 1:

Take the light, undarken everything around me
G|-6---6-6-6---6-6-6---6-6-6---6-6-6---6-6-6---6-6-6---6-6-6---6-6-|
D|-6---6-6-6---6-6-6---6-6-6---6-6-6---6-6-6---6-6-6---6-6-6---6-6-|
A|-4---4-4-4---4-4-4---4-4-4---4-4-4---4-4-4---4-4-4---4-4-4---4-4-|
E|-----------------------------------------------------------------|
   1 2 3 4 1 2 3 4 1 2 3 4 1 2 3 4 1 2 3 4 1 2 3 4 1 2 3 4 1 2 3 4 <- beat

Call the clowns and listen closely, i'm lost without you
G|-6---6-6-6---6-6-6---6-6-6---6-6-6---6-6-6---6-6-6---6-6-6---6-6-|
D|-4---4-4-4---4-4-4---4-4-4---4-4-4---4-4-4---4-4-4---4-4-4---4-4-|
A|-----------------------------------------------------------------|
E|-----------------------------------------------------------------|
   1 2 3 4 1 2 3 4 1 2 3 4 1 2 3 4 1 2 3 4 1 2 3 4 1 2 3 4 1 2 3 4 <- beat


Chorus:

Call your name every day when i feel so helpless
G|-6-6-6-6-6-6-6-6-6-6-6-6-6-6-6-6-6-6-6-6-6-6-6-6-6-6-6-6-6-6-6-6-|
D|-6-6-6-6-6-6-6-6-6-6-6-6-6-6-6-6-6-6-6-6-6-6-6-6-6-6-6-6-6-6-6-6-|
A|-4-4-4-4-4-4-4-4-4-4-4-4-4-4-4-4-4-4-4-4-4-4-4-4-4-4-4-4-4-4-4-4-|
E|-----------------------------------------------------------------|

I'm fallin' down but i'll rise above this, rise above this
G|-6-6-6-6-6-6-6-6-6-6-6-6-6-6-6-6-6-6-6-6-6-6-6-6-6-6-6-6-6-6-6-6-|
D|-4-4-4-4-4-4-4-4-4-4-4-4-4-4-4-4-4-4-4-4-4-4-4-4-4-4-4-4-4-4-4-4-|
A|-----------------------------------------------------------------|
E|-----------------------------------------------------------------|


Verse 2:

Hate the mind, regrets are better left unspoken
G|-6---6-6-6---6-6-6---6-6-6---6-6-6---6-6-6---6-6-6---6-6-6---6-6-|
D|-6---6-6-6---6-6-6---6-6-6---6-6-6---6-6-6---6-6-6---6-6-6---6-6-|
A|-4---4-4-4---4-4-4---4-4-4---4-4-4---4-4-4---4-4-4---4-4-4---4-4-|
E|-----------------------------------------------------------------|
   1 2 3 4 1 2 3 4 1 2 3 4 1 2 3 4 1 2 3 4 1 2 3 4 1 2 3 4 1 2 3 4 <- beat

For all we know, this void will grow and
G|-6---6-6-6---6-6-6---6-6-6---6-6-6---6-6-6---6-6-6---6-6-6---6-6-|
D|-4---4-4-4---4-4-4---4-4-4---4-4-4---4-4-4---4-4-4---4-4-4---4-4-|
A|-----------------------------------------------------------------|
E|-----------------------------------------------------------------|
   1 2 3 4 1 2 3 4 1 2 3 4 1 2 3 4 1 2 3 4 1 2 3 4 1 2 3 4 1 2 3 4 <- beat

Everything's in vain, distressing you though it leaves me open
G|-6---6-6-6---6-6-6---6-6-6---6-6-6---6-6-6---6-6-6---6-6-6---6-6-|
D|-4---4-4-6---6-6-6---6-6-6---6-6-6---6-6-6---6-6-6---6-6-6---6-6-|
A|---------4---4-4-4---4-4-4---4-4-4---4-4-4---4-4-4---4-4-4---4-4-|
E|-----------------------------------------------------------------|

Feels so right, but i'll end this all before it gets me
G|-6---6-6-6---6-6-6---6-6-6---6-6-6---6-6-6---6-6-6---6-6-6---6-6-|
D|-4---4-4-4---4-4-4---4-4-4---4-4-4---4-4-4---4-4-4---4-4-4---4-4-|
A|-----------------------------------------------------------------|
E|-----------------------------------------------------------------|
   1 2 3 4 1 2 3 4 1 2 3 4 1 2 3 4 1 2 3 4 1 2 3 4 1 2 3 4 1 2 3 4 <- beat


Chorus:

Call your name every day, when i feel so helpless
I'm fallin' down, but i'll rise above this, rise above this
Call your name every day, when i seem so helpless
I'm fallin' down, but i'll rise above this, rise above this doubt


During Guitar Solo:
G|-6-6-6-6-6-6-6-6-6-6-6-6-6-6-6-6-6-6-6-6-6-6-6-6-6-6-6-6-6-6-6-6-|
D|-6-6-6-6-6-6-6-6-6-6-6-6-6-6-6-6-6-6-6-6-6-6-6-6-6-6-6-6-6-6-6-6-|
A|-4-4-4-4-4-4-4-4-4-4-4-4-4-4-4-4-4-4-4-4-4-4-4-4-4-4-4-4-4-4-4-4-|
E|-----------------------------------------------------------------|

G|-6-6-6-6-6-6-6-6-6-6-6-6-6-6-6-6-6-6-6-6-6-6-6-6-6-6-6-6-6-6-6-6-|
D|-4-4-4-4-4-4-4-4-4-4-4-4-4-4-4-4-4-4-4-4-4-4-4-4-4-4-4-4-4-4-4-4-|
A|-----------------------------------------------------------------|
E|-----------------------------------------------------------------|

Bridge:

I'll mend myself before it gets me (i'll mend myself before it gets me)
G|-----------------------------------------------------------------|
D|-----------------------------------------------------------------|
A|-4-4-4-4-4-4-4-4-4-4-4-4-4-4-4-4-4-4-4-4-4-4-4-4-4-4-4-4-4-4-4-4-|
E|-----------------------------------------------------------------|

I'll mend myself before it gets me (i'll mend myself before it gets me)
G|-----------------------------------------------------------------|
D|-4-4-4-4-4-4-4-4-4-4-4-4-4-4-4-4-4-4-4-4-4-4-4-4-4-4-4-4-4-4-4-4-|
A|-----------------------------------------------------------------|
E|-----------------------------------------------------------------|

Chorus:

Call your name every day, when i feel so helpless
I'm fallin' down, but i'll rise above this, rise above this
Call your name every day, when i seem so helpless
I'm fallin' down, but i'll rise above this, rise above this
Forty eight ways to say that i'm feelin' helpless
Fallin' down, fallin down', but i'll rise above this, rise above this


This song only has two patterns, and they're not hard to play at all.
Enjoy playing, and when you get bored of the simple rhythm, play around with the beat. 
can just play along with the drums in the song, it'll sound great.

Enjoy!
comments
print report bad tab
4 comments total. Showing first comments.
+1 reply
alreadygone wrote on August 5 2008, 10:17 am

playing chords that low on the bass doesnt sound good.

+1 reply
bassman36 wrote on August 9 2008, 08:24 pm

sorry to say but u need to listen to the song b/c im pretty sure that there is no chords being played by the bass

+1 reply
bassplayer18A7X wrote on November 20 2008, 08:06 pm

way to complicated, and there arent any chords in this song. It would be fun to play if you want something more challenging, but not if you just want to learn the song.

I want to post or [tab]
guest
You may want to rate the tab now too:
select rating
Please do not post tabs as comments. Select "correction" instead!