Oops, an error
Loading. Please wait.

Toungue Bass Tab

317 views 1 this week
1 commentread comment
1 2 3 4 5
please rate
add to favorites launch autoscroll
font size
0
reset
Autoscroll
+/-
esc
set tempo
stop
Contributor
WARNING: You are trying to view
                                    content from Ultimate-Guitar.com
                                    in an unauthorized application,
                                    which is prohibited.

                                    Please use an official Ultimate
                                    Guitar Tabs application for iPhone,
                                    iPad or Android to access legitimate
                                    chords, guitar, bass, and drum tabs
                                    from Ultimate-Guitar.com database.

                                    Type "ultimate guitar tabs" in Apple
                                    App Store's or Android Market's
                                    search to find the application.
“Tongue”

Drop D

Verse
|-----------------------------|
|-----------------------------|
|-----------------------------|
|-0-0---0-3-3---3-0-0---0-3-3-| repeat the pattern until the pre-chorus

Pre-Chorus
G|-----|-----------------|--------------------|
D|-----|-----------------|--------------------|
A|-----|-2-2----2-2------|--------------------|
D|-7\3-|------5------5---|-7-7-7-7-7-7-7-7-3~-|

Chorus x2
G|-----------------------------------|
D|-----------------------------------|
A|-----------------------------------|
D|-2-2-2-2-5-5-5-5-0h2-2---2-0h2-2---|

Verse
Verse 2 verse ones pattern with all eighth notes
Pre-Chorus
G|-----|-----------------|-----------------------------------|
D|-----|-----------------|-----------------------------------|
A|-----|-2-2----2-2------|-----------------------------------|
D|-7\3-|------5------5---|-7-7-7-7-7-7-7-7-3-3-3-3-3-3-3-3-3-|
Chorus x4
                                                                       
Break x3
G|-----------------------------------------|
D|-----------------------------------------|
A|-----------------------------------------|
D|-5-5-5-5-5-5-5-5-5-5-5-5-2-2-0---2-2-0---|

|---------------------------|
|---------------------------|
|---------------------------|
|-7-7-7-7-7-7-7-7-3-3-3-3-3-|

Chorus x6
                                                                            Outro
G|--------------|
D|--------------|
A|-2-----2------|
D|---5------5---|
comments
We did not receive enough feedback on this tab! Please rate:
1 2 3 4 5
1 comment total.
0 reply
Bass Pants wrote on August 3 2007, 11:09 pm

fixing minor errors update coming soon

I want to post or [tab]
guest
You may want to rate the tab now too:
select rating
Please do not post tabs as comments. Select "correction" instead!