Oops, an error
Loading. Please wait.

World Falls Away Tab

ver4
ver4

Intro

Whole song

More versions @911Tabs.com
789 views 1 this week
no commentswrite comment
1 2 3 4 5
accurate
x 3
Autoscroll
+/-
esc
set tempo
stop
Contributor
Difficulty
Tuning
novice
C# G# C# F# A# D#
WARNING: You are trying to view
                                    content from Ultimate-Guitar.com
                                    in an unauthorized application,
                                    which is prohibited.

                                    Please use an official Ultimate
                                    Guitar Tabs application for iPhone,
                                    iPad or Android to access legitimate
                                    chords, guitar, bass, and drum tabs
                                    from Ultimate-Guitar.com database.

                                    Type "ultimate guitar tabs" in Apple
                                    App Store's or Android Market's
                                    search to find the application.
World Falls Away
Seether
Karma And Effect (2005)

World Falls Away:  written by Shaun Morgan and Dale Stewart

GTR I - Drop Db Tuning (eb,Bb,Gb,Db,Ab,Db)
GTR II - Drop Db Tuning (eb,Bb,Gb,Db,Ab,Db)

Intro

   GTR I (Distortion)
eb|-------------------------------------|
Bb|-------------------------------------|
Gb|-------------------------------------|
Db|-10-10-10-10-------------------------|
Ab|--8--8--8--8-------------------------|
Db|--8--8--8--8-------------------------|
  |
  |GTR II (Dist. with Wah)
eb|-------------------------------------|
Bb|-------------------------------------|
Gb|-------------------------------------|
Db|-------------------------12----------|
Ab|-------------------12b---------12r---|
Db|-------------------------------------|

   GTR I
eb|-------------------------------------|
Bb|-------------------------------------|
Gb|-------------------------------------|
Db|-10-10-10-10-------------------------|
Ab|--8--8--8--8-------------------------|
Db|--8--8--8--8-------------------------|
  |
  |GTR II 
eb|-------------------------------------|
Bb|-------------------------------------|
Gb|-------------------------------------|
Db|-------------------------12----------|
Ab|-------------------12b---------12r---|
Db|-------------------------------------|

   GTR I
eb|-------------------------------------|
Bb|-------------------------------------|
Gb|-------------------------------------|
Db|-10-10-10-10-------------------------|
Ab|--8--8--8--8-------------------------|
Db|--8--8--8--8-------------------------|
  |
  |GTR II
eb|-------------------------------------|
Bb|-------------------------------------|
Gb|-------------------------------------|
Db|-------------------------12----------|
Ab|-------------------12b---------12r---|
Db|-------------------------------------|

   GTR I 
eb|-------------------------------------|
Bb|-------------------------------------|
Gb|-------------------------------------|
Db|-10-10-10-10-------------------------|
Ab|--8--8--8--8-------------------------|
Db|--8--8--8--8-------------------------|
  |
  |GTR II 
eb|-------------------------------------|
Bb|-------------------------------------|
Gb|-------------------------------------|
Db|-------------------------------------|
Ab|-------------------------------------|
Db|-------------------------------------|

Pre-Verse

   GTR I
eb|-------------------------------------|
Bb|-------------------------------------|
Gb|-------------------------------------|
Db|--2-----2--2--x--x--2-----2--2--x--x-|
Ab|--2-----2--2--x--x--2-----2--2--x--x-|
Db|--2-----2--2--x--x--2-----2--2--x--x-|
  |
  |GTR II (Distrotion)
eb|--------------------------12+--------|
Bb|-------------------12-------------12-|
Gb|--9-----------9--9-------------------|
Db|-------------------------------------|
Ab|-------------------------------------|
Db|-------------------------------------|

   GTR I
eb|-------------------------------------|
Bb|-------------------------------------|
Gb|-------------------------------------|
Db|--5-----5--5--5-----5/-7--7--7--7--7-|
Ab|--5-----5--5--5-----5/-7--7--7--7--7-|
Db|--5-----5--5--5-----5/-7--7--7--7--7-|
  |
  |GTR II
eb|----------------------------14----15-|
Bb|-10-------------10-10/15-------------|
Gb|-------------------------------------|
Db|-------------------------------------|
Ab|-------------------------------------|
Db|-------------------------------------|

   GTR I
eb|-------------------------------------|
Bb|-------------------------------------|
Gb|-------------------------------------|
Db|--2-----2--2--x--x--2-----2--2--x--x-|
Ab|--2-----2--2--x--x--2-----2--2--x--x-|
Db|--2-----2--2--x--x--2-----2--2--x--x-|
  |
  |GTR II
eb|--------------------------12+--------|
Bb|-------------------12-------------12-|
Gb|--9-----------9--9-------------------|
Db|-------------------------------------|
Ab|-------------------------------------|
Db|-------------------------------------|

   GTR I
eb|-------------------------------------|
Bb|-------------------------------------|
Gb|-------------------------------------|
Db|--5-----5--5--5-----5p-0--0--0--0--0-|
Ab|--5-----5--5--5-----5p-0--0--0--0--0-|
Db|--5-----5--5--5-----5p-0--0--0--0--0-|
  |
  |GTR II
eb|----------------------------15p14----|
Bb|-10-------------------15----------15-|
Gb|-------------------------------------|
Db|-------------------------------------|
Ab|-------------------------------------|
Db|-------------------------------------|

   GTR I
eb|-------------------------------------|
Bb|-------------------------------------|
Gb|-------------------------------------|
Db|--2-----2--2--x--x--2-----2--2--x--x-|
Ab|--2-----2--2--x--x--2-----2--2--x--x-|
Db|--2-----2--2--x--x--2-----2--2--x--x-|
  |
  |GTR II
eb|--------------------------12+--------|
Bb|-------------------12-------------12-|
Gb|--9-----------9--9-------------------|
Db|-------------------------------------|
Ab|-------------------------------------|
Db|-------------------------------------|

   GTR I
eb|-------------------------------------|
Bb|-------------------------------------|
Gb|-------------------------------------|
Db|--5-----5--5--5-----5/-7--7--7--7--7-|
Ab|--5-----5--5--5-----5/-7--7--7--7--7-|
Db|--5-----5--5--5-----5/-7--7--7--7--7-|
  |
  |GTR II
eb|----------------------------14----15-|
Bb|-10-------------10-10/15-------------|
Gb|-------------------------------------|
Db|-------------------------------------|
Ab|-------------------------------------|
Db|-------------------------------------|

   GTR I
eb|-------------------------------------|
Bb|-------------------------------------|
Gb|-------------------------------------|
Db|--2-----2--2--x--x--2-----2--2--x--x-|
Ab|--2-----2--2--x--x--2-----2--2--x--x-|
Db|--2-----2--2--x--x--2-----2--2--x--x-|
  |
  |GTR II
eb|--------------------------12+--------|
Bb|-------------------12-------------12-|
Gb|--9-----------9--9-------------------|
Db|-------------------------------------|
Ab|-------------------------------------|
Db|-------------------------------------|

   GTR I
eb|-------------------------------------|
Bb|-------------------------------------|
Gb|-------------------------------------|
Db|--5-----5--5--5-----5p-0--0--0--0--0-|
Ab|--5-----5--5--5-----5p-0--0--0--0--0-|
Db|--5-----5--5--5-----5p-0--0--0--0--0-|
  |
  |GTR II
eb|-------------------------------------|
Bb|-10b---------------------------------|
Gb|-------------------------------------|
Db|-------------------------------------|
Ab|-------------------------------------|
Db|-------------------------------------|

Verse

   GTR I (Clean)
eb|-------------------------------------|
Bb|-------------------------------------|
Gb|-------------------------------------|
Db|-------9-10-9~-------9-10-9h10p9--12-|
Ab|--7-7----------/11-11-----------11---|
Db|-------------------------------------|
  |
  |GTR II
eb|-------------------------------------|
Bb|-------------------------------------|
Gb|-------------------------------------|
Db|-------------------------------------|
Ab|-------------------------------------|
Db|-------------------------------------|

   GTR I 
eb|-------------------------------------|
Bb|-------------------------------------|
Gb|-------------------------------------|
Db|-------9-10-9~-------9-10-9h10p9--12-|
Ab|--7-7----------/11-11-----------11---|
Db|-------------------------------------|
  |
  |GTR II
eb|-------------------------------------|
Bb|-------------------------------------|
Gb|-------------------------------------|
Db|-------------------------------------|
Ab|-------------------------------------|
Db|-------------------------------------|

   GTR I 
eb|-------------------------------------|
Bb|-------------------------------------|
Gb|-------------------------------------|
Db|-------9-10-9~-------9-10-9h10p9--12-|
Ab|--7-7----------/11-11-----------11---|
Db|-------------------------------------|
  |
  |GTR II
eb|-------------------------------------|
Bb|-------------------------------------|
Gb|-------------------------------------|
Db|-------------------------------------|
Ab|-------------------------------------|
Db|-------------------------------------|

   GTR I 
eb|-------------------------------------|
Bb|-------------------------------------|
Gb|-------------------------------------|
Db|-------9-10-9~-------9-10-9h10p9--12-|
Ab|--7-7----------/11-11-----------11---|
Db|-------------------------------------|
  |
  |GTR II
eb|-------------------------------------|
Bb|-------------------------------------|
Gb|-----------------------------7--7--7/|
Db|-----------------------------x--x--x-|
Ab|-----------------------------5--5--5/|
Db|-------------------------------------|

   GTR I (Distortion)
eb|-------------------------------------|
Bb|-------------------------------------|
Gb|-------------------------------------|
Db|-------9-10-9~-------9-10-9h10p9--12-|
Ab|--7-7----------/11-11-----------11---|
Db|-------------------------------------|
  |
  |GTR II
eb|-------------------------------------|
Bb|-------------------------------------|
Gb|--9-------------12-------4------7--7/|
Db|--x--------------x-------x------x--x-|
Ab|--7-------------10-------2------5--5/|
Db|-------------------------------------|

   GTR I 
eb|-------------------------------------|
Bb|-------------------------------------|
Gb|-------------------------------------|
Db|-------9-10-9~-------9-10-9h10p9--12-|
Ab|--7-7----------/11-11-----------11---|
Db|-------------------------------------|
  |
  |GTR II
eb|-------------------------------------|
Bb|-------------------------------------|
Gb|--9-------------12-------4------7--7/|
Db|--x--------------x-------x------x--x-|
Ab|--7-------------10-------2------5--5/|
Db|-------------------------------------|

   GTR I 
eb|-------------------------------------|
Bb|-------------------------------------|
Gb|-------------------------------------|
Db|-------9-10-9~-------9-10-9h10p9--12-|
Ab|--7-7----------/11-11-----------11---|
Db|-------------------------------------|
  |
  |GTR II
eb|-------------------------------------|
Bb|-------------------------------------|
Gb|--9-------------12-------4------7--7/|
Db|--x--------------x-------x------x--x-|
Ab|--7-------------10-------2------5--5/|
Db|-------------------------------------|

   GTR I 
eb|-------------------------------------|
Bb|-------------------------------------|
Gb|-------------------------------------|
Db|-------9-10-9~-------9-10-9h10p9--12-|
Ab|--7-7----------/11-11-----------11---|
Db|-------------------------------------|
  |
  |GTR II
eb|-------------------------------------|
Bb|-------------------------------------|
Gb|--9-------------12-------4-----------|
Db|--x--------------x-------x-----------|
Ab|--7-------------10-------2-----------|
Db|-------------------------------------|

Intro

   GTR I
eb|-------------------------------------|
Bb|-------------------------------------|
Gb|-------------------------------------|
Db|-10-10-10-10-------------------------|
Ab|--8--8--8--8-------------------------|
Db|--8--8--8--8-------------------------|
  |
  |GTR II (Dist. with Wah)
eb|-------------------------------------|
Bb|-------------------------------------|
Gb|-------------------------------------|
Db|-------------------------12----------|
Ab|-------------------12b---------12r---|
Db|-------------------------------------|

   GTR I
eb|-------------------------------------|
Bb|-------------------------------------|
Gb|-------------------------------------|
Db|-10-10-10-10-------------------------|
Ab|--8--8--8--8-------------------------|
Db|--8--8--8--8-------------------------|
  |
  |GTR II 
eb|-------------------------------------|
Bb|-------------------------------------|
Gb|-------------------------------------|
Db|-------------------------12----------|
Ab|-------------------12b---------12r---|
Db|-------------------------------------|

   GTR I
eb|-------------------------------------|
Bb|-------------------------------------|
Gb|-------------------------------------|
Db|-10-10-10-10-------------------------|
Ab|--8--8--8--8-------------------------|
Db|--8--8--8--8-------------------------|
  |
  |GTR II
eb|-------------------------------------|
Bb|-------------------------------------|
Gb|-------------------------------------|
Db|-------------------------12----------|
Ab|-------------------12b---------12r---|
Db|-------------------------------------|

   GTR I 
eb|-------------------------------------|
Bb|-------------------------------------|
Gb|-------------------------------------|
Db|-10-10-10-10-------------------------|
Ab|--8--8--8--8-------------------------|
Db|--8--8--8--8-------------------------|
  |
  |GTR II 
eb|-------------------------------------|
Bb|-------------------------------------|
Gb|-------------------------------------|
Db|-------------------------------------|
Ab|-------------------------------------|
Db|-------------------------------------|

Chorus

   GTR I
eb|-------------------------------------|
Bb|-------------------------------------|
Gb|-------------------------------------|
Db|--2-----2--2--x--x--2-----2--2--x--x-|
Ab|--2-----2--2--x--x--2-----2--2--x--x-|
Db|--2-----2--2--x--x--2-----2--2--x--x-|
  |
  |GTR II (Distortion)
eb|-------------------------------------|
Bb|-------------------------------------|
Gb|-------------------------------------|
Db|--2-----2--2--x--x--2-----2--2--x--x-|
Ab|--2-----2--2--x--x--2-----2--2--x--x-|
Db|--2-----2--2--x--x--2-----2--2--x--x-|

   GTR I
eb|-------------------------------------|
Bb|-------------------------------------|
Gb|-------------------------------------|
Db|--5-----5--5--5-----5/-7--7--7--7--7-|
Ab|--5-----5--5--5-----5/-7--7--7--7--7-|
Db|--5-----5--5--5-----5/-7--7--7--7--7-|
  |
  |GTR II
eb|-------------------------------------|
Bb|-------------------------------------|
Gb|-------------------------------------|
Db|--5-----5--5--5-----5/-7--7--7--7--7-|
Ab|--5-----5--5--5-----5/-7--7--7--7--7-|
Db|--5-----5--5--5-----5/-7--7--7--7--7-|

   GTR I
eb|-------------------------------------|
Bb|-------------------------------------|
Gb|-------------------------------------|
Db|--2-----2--2--x--x--2-----2--2--x--x-|
Ab|--2-----2--2--x--x--2-----2--2--x--x-|
Db|--2-----2--2--x--x--2-----2--2--x--x-|
  |
  |GTR II
eb|-------------------------------------|
Bb|-------------------------------------|
Gb|-------------------------------------|
Db|--2-----2--2--x--x--2-----2--2--x--x-|
Ab|--2-----2--2--x--x--2-----2--2--x--x-|
Db|--2-----2--2--x--x--2-----2--2--x--x-|

   GTR I
eb|-------------------------------------|
Bb|-------------------------------------|
Gb|-------------------------------------|
Db|--5-----5--5--5-----5p-0--0--0--0--0-|
Ab|--5-----5--5--5-----5p-0--0--0--0--0-|
Db|--5-----5--5--5-----5p-0--0--0--0--0-|
  |
  |GTR II
eb|-------------------------------------|
Bb|-------------------------------------|
Gb|-------------------------------------|
Db|--5-----5--5--5-----5p-0--0--0--0--0-|
Ab|--5-----5--5--5-----5p-0--0--0--0--0-|
Db|--5-----5--5--5-----5p-0--0--0--0--0-|

   GTR I
eb|-------------------------------------|
Bb|-------------------------------------|
Gb|-------------------------------------|
Db|--2-----2--2--x--x--2-----2--2--x--x-|
Ab|--2-----2--2--x--x--2-----2--2--x--x-|
Db|--2-----2--2--x--x--2-----2--2--x--x-|
  |
  |GTR II
eb|-------------------------------------|
Bb|-------------------------------------|
Gb|-------------------------------------|
Db|--2-----2--2--x--x--2-----2--2--x--x-|
Ab|--2-----2--2--x--x--2-----2--2--x--x-|
Db|--2-----2--2--x--x--2-----2--2--x--x-|

   GTR I
eb|-------------------------------------|
Bb|-------------------------------------|
Gb|-------------------------------------|
Db|--5-----5--5--5-----5/-7--7--7--7--7-|
Ab|--5-----5--5--5-----5/-7--7--7--7--7-|
Db|--5-----5--5--5-----5/-7--7--7--7--7-|
  |
  |GTR II
eb|-------------------------------------|
Bb|-------------------------------------|
Gb|-------------------------------------|
Db|--5-----5--5--5-----5/-7--7--7--7--7-|
Ab|--5-----5--5--5-----5/-7--7--7--7--7-|
Db|--5-----5--5--5-----5/-7--7--7--7--7-|

   GTR I
eb|-------------------------------------|
Bb|-------------------------------------|
Gb|-------------------------------------|
Db|--2-----2--2--x--x--2-----2--2--x--x-|
Ab|--2-----2--2--x--x--2-----2--2--x--x-|
Db|--2-----2--2--x--x--2-----2--2--x--x-|
  |
  |GTR II
eb|-------------------------------------|
Bb|-------------------------------------|
Gb|-------------------------------------|
Db|--2-----2--2--x--x--2-----2--2--x--x-|
Ab|--2-----2--2--x--x--2-----2--2--x--x-|
Db|--2-----2--2--x--x--2-----2--2--x--x-|

   GTR I
eb|-------------------------------------|
Bb|-------------------------------------|
Gb|-------------------------------------|
Db|--5-----5--5--5-----5p-0--0--0--0--0-|
Ab|--5-----5--5--5-----5p-0--0--0--0--0-|
Db|--5-----5--5--5-----5p-0--0--0--0--0-|
  |
  |GTR II
eb|-------------------------------------|
Bb|-------------------------------------|
Gb|-------------------------------------|
Db|--5-----5--5--5-----5p-0--0--0--0--0-|
Ab|--5-----5--5--5-----5p-0--0--0--0--0-|
Db|--5-----5--5--5-----5p-0--0--0--0--0-|

Pre Verse

   GTR I
eb|-------------------------------------|
Bb|-------------------------------------|
Gb|-------------------------------------|
Db|--2-----2--2--x--x--2-----2--2--x--x-|
Ab|--2-----2--2--x--x--2-----2--2--x--x-|
Db|--2-----2--2--x--x--2-----2--2--x--x-|
  |
  |GTR II
eb|--------------------------12+--------|
Bb|-------------------12-------------12-|
Gb|--9-----------9--9-------------------|
Db|-------------------------------------|
Ab|-------------------------------------|
Db|-------------------------------------|

   GTR I
eb|-------------------------------------|
Bb|-------------------------------------|
Gb|-------------------------------------|
Db|--5-----5--5--5-----5p-0--0--0--0--0-|
Ab|--5-----5--5--5-----5p-0--0--0--0--0-|
Db|--5-----5--5--5-----5p-0--0--0--0--0-|
  |
  |GTR II
eb|----------------------------15p14----|
Bb|-10-------------10-10-15----------15-|
Gb|-------------------------------------|
Db|-------------------------------------|
Ab|-------------------------------------|
Db|-------------------------------------|

   GTR I
eb|-------------------------------------|
Bb|-------------------------------------|
Gb|-------------------------------------|
Db|--2-----2--2--x--x--2-----2--2--x--x-|
Ab|--2-----2--2--x--x--2-----2--2--x--x-|
Db|--2-----2--2--x--x--2-----2--2--x--x-|
  |
  |GTR II
eb|--------------------------12+--------|
Bb|-------------------12-------------12-|
Gb|--9-----------9--9-------------------|
Db|-------------------------------------|
Ab|-------------------------------------|
Db|-------------------------------------|

   GTR I
eb|-------------------------------------|
Bb|-------------------------------------|
Gb|-------------------------------------|
Db|--5-----5--5--5-----5p-0--0--0--0--0-|
Ab|--5-----5--5--5-----5p-0--0--0--0--0-|
Db|--5-----5--5--5-----5p-0--0--0--0--0-|
  |
  |GTR II
eb|-------------------------------------|
Bb|-10b---------------------------------|
Gb|-------------------------------------|
Db|-------------------------------------|
Ab|-------------------------------------|
Db|-------------------------------------|

Verse

   GTR I (Clean)
eb|-------------------------------------|
Bb|-------------------------------------|
Gb|-------------------------------------|
Db|-------9-10-9~-------9-10-9h10p9--12-|
Ab|--7-7----------/11-11-----------11---|
Db|-------------------------------------|
  |
  |GTR II
eb|-------------------------------------|
Bb|-------------------------------------|
Gb|-------------------------------------|
Db|-------------------------------------|
Ab|-------------------------------------|
Db|-------------------------------------|

   GTR I 
eb|-------------------------------------|
Bb|-------------------------------------|
Gb|-------------------------------------|
Db|-------9-10-9~-------9-10-9h10p9--12-|
Ab|--7-7----------/11-11-----------11---|
Db|-------------------------------------|
  |
  |GTR II
eb|-------------------------------------|
Bb|-------------------------------------|
Gb|-------------------------------------|
Db|-------------------------------------|
Ab|-------------------------------------|
Db|-------------------------------------|

   GTR I 
eb|-------------------------------------|
Bb|-------------------------------------|
Gb|-------------------------------------|
Db|-------9-10-9~-------9-10-9h10p9--12-|
Ab|--7-7----------/11-11-----------11---|
Db|-------------------------------------|
  |
  |GTR II
eb|-------------------------------------|
Bb|-------------------------------------|
Gb|-------------------------------------|
Db|-------------------------------------|
Ab|-------------------------------------|
Db|-------------------------------------|

   GTR I 
eb|-------------------------------------|
Bb|-------------------------------------|
Gb|-------------------------------------|
Db|-------9-10-9~-------9-10-9h10p9--12-|
Ab|--7-7----------/11-11-----------11---|
Db|-------------------------------------|
  |
  |GTR II
eb|-------------------------------------|
Bb|-------------------------------------|
Gb|-----------------------------7--7--7/|
Db|-----------------------------x--x--x-|
Ab|-----------------------------5--5--5/|
Db|-------------------------------------|

   GTR I (Distortion)
eb|-------------------------------------|
Bb|-------------------------------------|
Gb|-------------------------------------|
Db|-------9-10-9~-------9-10-9h10p9--12-|
Ab|--7-7----------/11-11-----------11---|
Db|-------------------------------------|
  |
  |GTR II
eb|-------------------------------------|
Bb|-------------------------------------|
Gb|--9-------------12-------4------7--7/|
Db|--x--------------x-------x------x--x-|
Ab|--7-------------10-------2------5--5/|
Db|-------------------------------------|

   GTR I 
eb|-------------------------------------|
Bb|-------------------------------------|
Gb|-------------------------------------|
Db|-------9-10-9~-------9-10-9h10p9--12-|
Ab|--7-7----------/11-11-----------11---|
Db|-------------------------------------|
  |
  |GTR II
eb|-------------------------------------|
Bb|-------------------------------------|
Gb|--9-------------12-------4------7--7/|
Db|--x--------------x-------x------x--x-|
Ab|--7-------------10-------2------5--5/|
Db|-------------------------------------|

   GTR I 
eb|-------------------------------------|
Bb|-------------------------------------|
Gb|-------------------------------------|
Db|-------9-10-9~-------9-10-9h10p9--12-|
Ab|--7-7----------/11-11-----------11---|
Db|-------------------------------------|
  |
  |GTR II
eb|-------------------------------------|
Bb|-------------------------------------|
Gb|--9-------------12-------4------7--7/|
Db|--x--------------x-------x------x--x-|
Ab|--7-------------10-------2------5--5/|
Db|-------------------------------------|

   GTR I 
eb|-------------------------------------|
Bb|-------------------------------------|
Gb|-------------------------------------|
Db|-------9-10-9~-------9-10-9h10p9--12-|
Ab|--7-7----------/11-11-----------11---|
Db|-------------------------------------|
  |
  |GTR II
eb|-------------------------------------|
Bb|-------------------------------------|
Gb|--9-------------12-------4-----------|
Db|--x--------------x-------x-----------|
Ab|--7-------------10-------2-----------|
Db|-------------------------------------|

Intro

   GTR I
eb|-------------------------------------|
Bb|-------------------------------------|
Gb|-------------------------------------|
Db|-10-10-10-10-------------------------|
Ab|--8--8--8--8-------------------------|
Db|--8--8--8--8-------------------------|
  |
  |GTR II (Dist. with Wah)
eb|-------------------------------------|
Bb|-------------------------------------|
Gb|-------------------------------------|
Db|-------------------------12----------|
Ab|-------------------12b---------12r---|
Db|-------------------------------------|

   GTR I
eb|-------------------------------------|
Bb|-------------------------------------|
Gb|-------------------------------------|
Db|-10-10-10-10-------------------------|
Ab|--8--8--8--8-------------------------|
Db|--8--8--8--8-------------------------|
  |
  |GTR II 
eb|-------------------------------------|
Bb|-------------------------------------|
Gb|-------------------------------------|
Db|-------------------------12----------|
Ab|-------------------12b---------12r---|
Db|-------------------------------------|

   GTR I
eb|-------------------------------------|
Bb|-------------------------------------|
Gb|-------------------------------------|
Db|-10-10-10-10-------------------------|
Ab|--8--8--8--8-------------------------|
Db|--8--8--8--8-------------------------|
  |
  |GTR II
eb|-------------------------------------|
Bb|-------------------------------------|
Gb|-------------------------------------|
Db|-------------------------12----------|
Ab|-------------------12b---------12r---|
Db|-------------------------------------|

   GTR I 
eb|-------------------------------------|
Bb|-------------------------------------|
Gb|-------------------------------------|
Db|-10-10-10-10-------------------------|
Ab|--8--8--8--8-------------------------|
Db|--8--8--8--8-------------------------|
  |
  |GTR II 
eb|-------------------------------------|
Bb|-------------------------------------|
Gb|-------------------------------------|
Db|-------------------------------------|
Ab|-------------------------------------|
Db|-------------------------------------|

Chorus

   GTR I
eb|-------------------------------------|
Bb|-------------------------------------|
Gb|-------------------------------------|
Db|--2-----2--2--x--x--2-----2--2--x--x-|
Ab|--2-----2--2--x--x--2-----2--2--x--x-|
Db|--2-----2--2--x--x--2-----2--2--x--x-|
  |
  |GTR II (Distortion)
eb|-------------------------------------|
Bb|-------------------------------------|
Gb|-------------------------------------|
Db|--2-----2--2--x--x--2-----2--2--x--x-|
Ab|--2-----2--2--x--x--2-----2--2--x--x-|
Db|--2-----2--2--x--x--2-----2--2--x--x-|

   GTR I
eb|-------------------------------------|
Bb|-------------------------------------|
Gb|-------------------------------------|
Db|--5-----5--5--5-----5/-7--7--7--7--7-|
Ab|--5-----5--5--5-----5/-7--7--7--7--7-|
Db|--5-----5--5--5-----5/-7--7--7--7--7-|
  |
  |GTR II
eb|-------------------------------------|
Bb|-------------------------------------|
Gb|-------------------------------------|
Db|--5-----5--5--5-----5/-7--7--7--7--7-|
Ab|--5-----5--5--5-----5/-7--7--7--7--7-|
Db|--5-----5--5--5-----5/-7--7--7--7--7-|

   GTR I
eb|-------------------------------------|
Bb|-------------------------------------|
Gb|-------------------------------------|
Db|--2-----2--2--x--x--2-----2--2--x--x-|
Ab|--2-----2--2--x--x--2-----2--2--x--x-|
Db|--2-----2--2--x--x--2-----2--2--x--x-|
  |
  |GTR II
eb|-------------------------------------|
Bb|-------------------------------------|
Gb|-------------------------------------|
Db|--2-----2--2--x--x--2-----2--2--x--x-|
Ab|--2-----2--2--x--x--2-----2--2--x--x-|
Db|--2-----2--2--x--x--2-----2--2--x--x-|

   GTR I
eb|-------------------------------------|
Bb|-------------------------------------|
Gb|-------------------------------------|
Db|--5-----5--5--5-----5p-0--0--0--0--0-|
Ab|--5-----5--5--5-----5p-0--0--0--0--0-|
Db|--5-----5--5--5-----5p-0--0--0--0--0-|
  |
  |GTR II
eb|-------------------------------------|
Bb|-------------------------------------|
Gb|-------------------------------------|
Db|--5-----5--5--5-----5p-0--0--0--0--0-|
Ab|--5-----5--5--5-----5p-0--0--0--0--0-|
Db|--5-----5--5--5-----5p-0--0--0--0--0-|

   GTR I
eb|-------------------------------------|
Bb|-------------------------------------|
Gb|-------------------------------------|
Db|--2-----2--2--x--x--2-----2--2--x--x-|
Ab|--2-----2--2--x--x--2-----2--2--x--x-|
Db|--2-----2--2--x--x--2-----2--2--x--x-|
  |
  |GTR II
eb|-------------------------------------|
Bb|-------------------------------------|
Gb|-------------------------------------|
Db|--2-----2--2--x--x--2-----2--2--x--x-|
Ab|--2-----2--2--x--x--2-----2--2--x--x-|
Db|--2-----2--2--x--x--2-----2--2--x--x-|

   GTR I
eb|-------------------------------------|
Bb|-------------------------------------|
Gb|-------------------------------------|
Db|--5-----5--5--5-----5/-7--7--7--7--7-|
Ab|--5-----5--5--5-----5/-7--7--7--7--7-|
Db|--5-----5--5--5-----5/-7--7--7--7--7-|
  |
  |GTR II
eb|-------------------------------------|
Bb|-------------------------------------|
Gb|-------------------------------------|
Db|--5-----5--5--5-----5/-7--7--7--7--7-|
Ab|--5-----5--5--5-----5/-7--7--7--7--7-|
Db|--5-----5--5--5-----5/-7--7--7--7--7-|

   GTR I
eb|-------------------------------------|
Bb|-------------------------------------|
Gb|-------------------------------------|
Db|--2-----2--2--x--x--2-----2--2--x--x-|
Ab|--2-----2--2--x--x--2-----2--2--x--x-|
Db|--2-----2--2--x--x--2-----2--2--x--x-|
  |
  |GTR II
eb|-------------------------------------|
Bb|-------------------------------------|
Gb|-------------------------------------|
Db|--2-----2--2--x--x--2-----2--2--x--x-|
Ab|--2-----2--2--x--x--2-----2--2--x--x-|
Db|--2-----2--2--x--x--2-----2--2--x--x-|

   GTR I
eb|-------------------------------------|
Bb|-------------------------------------|
Gb|-------------------------------------|
Db|--5-----5--5--5-----5p-0--0--0--0--0-|
Ab|--5-----5--5--5-----5p-0--0--0--0--0-|
Db|--5-----5--5--5-----5p-0--0--0--0--0-|
  |
  |GTR II
eb|-------------------------------------|
Bb|-------------------------------------|
Gb|-------------------------------------|
Db|--5-----5--5--5-----5p-0--0--0--0--0-|
Ab|--5-----5--5--5-----5p-0--0--0--0--0-|
Db|--5-----5--5--5-----5p-0--0--0--0--0-|

   GTR I
eb|-------------------------------------|
Bb|-------------------------------------|
Gb|-------------------------------------|
Db|--2-----2--2--x--x--2-----2--2--x--x-|
Ab|--2-----2--2--x--x--2-----2--2--x--x-|
Db|--2-----2--2--x--x--2-----2--2--x--x-|
  |
  |GTR II 
eb|-------------------------------------|
Bb|-------------------------------------|
Gb|-------------------------------------|
Db|--2-----2--2--x--x--2-----2--2--x--x-|
Ab|--2-----2--2--x--x--2-----2--2--x--x-|
Db|--2-----2--2--x--x--2-----2--2--x--x-|

   GTR I
eb|-------------------------------------|
Bb|-------------------------------------|
Gb|-------------------------------------|
Db|--5-----5--5--5-----5/-7--7--7--7--7-|
Ab|--5-----5--5--5-----5/-7--7--7--7--7-|
Db|--5-----5--5--5-----5/-7--7--7--7--7-|
  |
  |GTR II
eb|-------------------------------------|
Bb|-------------------------------------|
Gb|-------------------------------------|
Db|--5-----5--5--5-----5/-7--7--7--7--7-|
Ab|--5-----5--5--5-----5/-7--7--7--7--7-|
Db|--5-----5--5--5-----5/-7--7--7--7--7-|

   GTR I
eb|-------------------------------------|
Bb|-------------------------------------|
Gb|-------------------------------------|
Db|--2-----2--2--x--x--2-----2--2--x--x-|
Ab|--2-----2--2--x--x--2-----2--2--x--x-|
Db|--2-----2--2--x--x--2-----2--2--x--x-|
  |
  |GTR II
eb|-------------------------------------|
Bb|-------------------------------------|
Gb|-------------------------------------|
Db|--2-----2--2--x--x--2-----2--2--x--x-|
Ab|--2-----2--2--x--x--2-----2--2--x--x-|
Db|--2-----2--2--x--x--2-----2--2--x--x-|

   GTR I
eb|-------------------------------------|
Bb|-------------------------------------|
Gb|-------------------------------------|
Db|--5-----5--5--5-----5p-0--0--0--0--0-|
Ab|--5-----5--5--5-----5p-0--0--0--0--0-|
Db|--5-----5--5--5-----5p-0--0--0--0--0-|
  |
  |GTR II
eb|-------------------------------------|
Bb|-------------------------------------|
Gb|-------------------------------------|
Db|--5-----5--5--5-----5p-0--0--0--0--0-|
Ab|--5-----5--5--5-----5p-0--0--0--0--0-|
Db|--5-----5--5--5-----5p-0--0--0--0--0-|

   GTR I
eb|-------------------------------------|
Bb|-------------------------------------|
Gb|-------------------------------------|
Db|--2-----2--2--x--x--2-----2--2--x--x-|
Ab|--2-----2--2--x--x--2-----2--2--x--x-|
Db|--2-----2--2--x--x--2-----2--2--x--x-|
  |
  |GTR II
eb|-------------------------------------|
Bb|-------------------------------------|
Gb|-------------------------------------|
Db|--2-----2--2--x--x--2-----2--2--x--x-|
Ab|--2-----2--2--x--x--2-----2--2--x--x-|
Db|--2-----2--2--x--x--2-----2--2--x--x-|

   GTR I
eb|-------------------------------------|
Bb|-------------------------------------|
Gb|-------------------------------------|
Db|--5-----5--5--5-----5/-7--7--7--7--7-|
Ab|--5-----5--5--5-----5/-7--7--7--7--7-|
Db|--5-----5--5--5-----5/-7--7--7--7--7-|
  |
  |GTR II
eb|-------------------------------------|
Bb|-------------------------------------|
Gb|-------------------------------------|
Db|--5-----5--5--5-----5/-7--7--7--7--7-|
Ab|--5-----5--5--5-----5/-7--7--7--7--7-|
Db|--5-----5--5--5-----5/-7--7--7--7--7-|

   GTR I
eb|-------------------------------------|
Bb|-------------------------------------|
Gb|-------------------------------------|
Db|--2-----2--2--x--x--2-----2--2--x--x-|
Ab|--2-----2--2--x--x--2-----2--2--x--x-|
Db|--2-----2--2--x--x--2-----2--2--x--x-|
  |
  |GTR II
eb|-------------------------------------|
Bb|-------------------------------------|
Gb|-------------------------------------|
Db|--2-----2--2--x--x--2-----2--2--x--x-|
Ab|--2-----2--2--x--x--2-----2--2--x--x-|
Db|--2-----2--2--x--x--2-----2--2--x--x-|

   GTR I
eb|-------------------------------------|
Bb|-------------------------------------|
Gb|-------------------------------------|
Db|--5-----5--5--5-----5p-0--0--0--0--0-|
Ab|--5-----5--5--5-----5p-0--0--0--0--0-|
Db|--5-----5--5--5-----5p-0--0--0--0--0-|
  |
  |GTR II
eb|-------------------------------------|
Bb|-------------------------------------|
Gb|-------------------------------------|
Db|--5-----5--5--5-----5p-0--0--0--0--0-|
Ab|--5-----5--5--5-----5p-0--0--0--0--0-|
Db|--5-----5--5--5-----5p-0--0--0--0--0-|

Bridge

   GTR I
eb|-------------------------------------|
Bb|-------------------------------------|
Gb|-------------------------------------|
Db|-/8--8--8--8-----8--8\-7--7--7-----7-|
Ab|-/8--8--8--8-----8--8\-7--7--7-----7-|
Db|-/8--8--8--8-----8--8\-7--7--7-----7-|
  |
  |GTR II
eb|-------------------------------------|
Bb|-------------------------------------|
Gb|-------------------------------------|
Db|-------------------------------------|
Ab|-------------------------------------|
Db|-------------------------------------|

   GTR I
eb|-------------------------------------|
Bb|-------------------------------------|
Gb|-------------------------------------|
Db|--0-----------0-----0--2----0----2---|
Ab|--0-----------0-----0--2----0----2---|
Db|--0-----------0-----0--2----0----2---|
  |
  |GTR II
eb|-------------------------------------|
Bb|-------------------10----------------|
Gb|-------------------12b---------------|
Db|-------------------------------------|
Ab|-------------------------------------|
Db|-------------------------------------|

   GTR I
eb|-------------------------------------|
Bb|-------------------------------------|
Gb|-------------------------------------|
Db|-/8--8--8--8-----8--8\-7--7--7-----7-|
Ab|-/8--8--8--8-----8--8\-7--7--7-----7-|
Db|-/8--8--8--8-----8--8\-7--7--7-----7-|
  |
  |GTR II
eb|-------------------------------------|
Bb|-------------------------------------|
Gb|-------------------------------------|
Db|-------------------------------------|
Ab|-------------------------------------|
Db|-------------------------------------|

   GTR I
eb|-------------------------------------|
Bb|-------------------------------------|
Gb|-------------------------------------|
Db|--0-----------0-----0--2----0----2---|
Ab|--0-----------0-----0--2----0----2---|
Db|--0-----------0-----0--2----0----2---|
  |
  |GTR II
eb|-------------------------------------|
Bb|-------------------10----------------|
Gb|-------------------12b---------------|
Db|-------------------------------------|
Ab|-------------------------------------|
Db|-------------------------------------|

   GTR I
eb|-------------------------------------|
Bb|-------------------------------------|
Gb|-------------------------------------|
Db|-/8--8--8--8-----8--8\-7--7--7-----7-|
Ab|-/8--8--8--8-----8--8\-7--7--7-----7-|
Db|-/8--8--8--8-----8--8\-7--7--7-----7-|
  |
  |GTR II
eb|-------------------------------------|
Bb|-------------------------------------|
Gb|-------------------------------------|
Db|-------------------------------------|
Ab|-------------------------------------|
Db|-------------------------------------|

   GTR I
eb|-------------------------------------|
Bb|-------------------------------------|
Gb|-------------------------------------|
Db|--0-----------0-----0--2----0----2---|
Ab|--0-----------0-----0--2----0----2---|
Db|--0-----------0-----0--2----0----2---|
  |
  |GTR II
eb|-------------------------------------|
Bb|-------------------10----------------|
Gb|-------------------12b---------------|
Db|-------------------------------------|
Ab|-------------------------------------|
Db|-------------------------------------|

   GTR I
eb|-------------------------------------|
Bb|-------------------------------------|
Gb|-------------------------------------|
Db|-/8--8--8--8-----8--8\-7--7--7-----7-|
Ab|-/8--8--8--8-----8--8\-7--7--7-----7-|
Db|-/8--8--8--8-----8--8\-7--7--7-----7-|
  |
  |GTR II
eb|-------------------------------------|
Bb|-------------------------------------|
Gb|-------------------------------------|
Db|-------------------------------------|
Ab|-------------------------------------|
Db|-------------------------------------|

   GTR I
eb|-------------------------------------|
Bb|-------------------------------------|
Gb|-------------------------------------|
Db|--0-----------0-----0--2----0----2---|
Ab|--0-----------0-----0--2----0----2---|
Db|--0-----------0-----0--2----0----2---|
  |
  |GTR II
eb|-------------------------------------|
Bb|-------------------10----------------|
Gb|-------------------12b---------------|
Db|-------------------------------------|
Ab|-------------------------------------|
Db|-------------------------------------|

   GTR I
eb|-------------------------------------|
Bb|-12-12----12-12-12h13p12-12----12----|
Gb|----------------------------------12+|
Db|-------------------------------------|
Ab|-------------------------------------|
Db|-------------------------------------| 
  |
  |GTR II (Dist. with Wah)
eb|-------------------------------------|
Bb|-------------------------------------|
Gb|-------------/9--9-------------/9--9-|
Db|--------------x--x--------------x--x-|
Ab|-------------/7--7-------------/7--7-|
Db|-------------------------------------|

   GTR I
eb|----------------------------------12+|
Bb|-12-12----12-12-12h13p12-12----12----|
Gb|-------------------------------------|
Db|-------------------------------------|
Ab|-------------------------------------|
Db|-------------------------------------| 
  |
  |GTR II 
eb|-------------------------------------|
Bb|-------------------------------------|
Gb|------------/12-12------------/14-14-|
Db|--------------x--x--------------x--x-|
Ab|------------/10-10------------/12-12-|
Db|-------------------------------------|

   GTR I
eb|-------------------------------------|
Bb|-12-12----12-12-12h13p12-12----12----|
Gb|----------------------------------12+|
Db|-------------------------------------|
Ab|-------------------------------------|
Db|-------------------------------------| 
  |
  |GTR II 
eb|-------------------------------------|
Bb|-------------------------------------|
Gb|-------------/9--9-------------/9--9-|
Db|--------------x--x--------------x--x-|
Ab|-------------/7--7-------------/7--7-|
Db|-------------------------------------|

   GTR I
eb|----------------------------------12+|
Bb|-12-12----12-12-12h13p12-12----12----|
Gb|-------------------------------------|
Db|-------------------------------------|
Ab|-------------------------------------|
Db|-------------------------------------| 
  |
  |GTR II 
eb|-------------------------------------|
Bb|-------------------------------------|
Gb|------------/12-12-------------/7--7-|
Db|--------------x--x--------------x--x-|
Ab|------------/10-10-------------/5--5-|
Db|-------------------------------------|

   GTR I
eb|-------------------------------------|
Bb|-12-12----12-12-12h13p12-12----12----|
Gb|----------------------------------12+|
Db|-------------------------------------|
Ab|-------------------------------------|
Db|-------------------------------------| 
  |
  |GTR II
eb|-------------------------------------|
Bb|-------------------------------------|
Gb|-------------/9--9-------------/9--9-|
Db|--------------x--x--------------x--x-|
Ab|-------------/7--7-------------/7--7-|
Db|-------------------------------------|

   GTR I
eb|----------------------------------12+|
Bb|-12-12----12-12-12h13p12-12----12----|
Gb|-------------------------------------|
Db|-------------------------------------|
Ab|-------------------------------------|
Db|-------------------------------------| 
  |
  |GTR II 
eb|-------------------------------------|
Bb|-------------------------------------|
Gb|------------/12-12------------/14-14-|
Db|--------------x--x--------------x--x-|
Ab|------------/10-10------------/12-12-|
Db|-------------------------------------|

   GTR I
eb|-------------------------------------|
Bb|-12-12----12-12-12h13p12-12----12----|
Gb|----------------------------------12+|
Db|-------------------------------------|
Ab|-------------------------------------|
Db|-------------------------------------| 
  |
  |GTR II 
eb|-------------------------------------|
Bb|-------------------------------------|
Gb|-------------/9--9-------------/9--9-|
Db|--------------x--x--------------x--x-|
Ab|-------------/7--7-------------/7--7-|
Db|-------------------------------------|

   GTR I
eb|----------------------------------12+|
Bb|-12-12----12-12-12h13p12-12----12----|
Gb|-------------------------------------|
Db|-------------------------------------|
Ab|-------------------------------------|
Db|-------------------------------------| 
  |
  |GTR II 
eb|-------------------------------------|
Bb|-------------------------------------|
Gb|------------/12-12-------------/7--7-|
Db|--------------x--x--------------x--x-|
Ab|------------/10-10-------------/5--5-|
Db|-------------------------------------|

Pre Solo

   GTR I (Clean)
eb|-------------------------------------|
Bb|-12-12----12-12-12h13p12-12----12----|
Gb|----------------------------------12+|
Db|-------------------------------------|
Ab|-------------------------------------|
Db|-------------------------------------| 
  |
  |GTR II (Light Dist. with Wah)
eb|-------------------------------------|
Bb|-------------------------------------|
Gb|--9----------------------------------|
Db|--x----------------------------------|
Ab|--7----------------------------------|
Db|-------------------------------------|

   GTR I
eb|----------------------------------12+|
Bb|-12-12----12-12-12h13p12-12----12----|
Gb|-------------------------------------|
Db|-------------------------------------|
Ab|-------------------------------------|
Db|-------------------------------------| 
  |
  |GTR II 
eb|-------------------------------------|
Bb|-------------------------------------|
Gb|-12--------------14------------------|
Db|--x---------------x------------------|
Ab|-10--------------12------------------|
Db|-------------------------------------|

   GTR I
eb|-------------------------------------|
Bb|-12-12----12-12-12h13p12-12----12----|
Gb|----------------------------------12+|
Db|-------------------------------------|
Ab|-------------------------------------|
Db|-------------------------------------| 
  |
  |GTR II 
eb|-------------------------------------|
Bb|-------------------------------------|
Gb|--9----------------------------------|
Db|--x----------------------------------|
Ab|--7----------------------------------|
Db|-------------------------------------|

   GTR I
eb|----------------------------------12+|
Bb|-12-12----12-12-12h13p12-12----12----|
Gb|-------------------------------------|
Db|-------------------------------------|
Ab|-------------------------------------|
Db|-------------------------------------| 
  |
  |GTR II 
eb|-------------------------------------|
Bb|-------------------------------------|
Gb|-12---------------7------------------|
Db|--x---------------x------------------|
Ab|-10---------------5------------------|
Db|-------------------------------------|

   GTR I 
eb|-------------------------------------|
Bb|-12-12----12-12-12h13p12-12----12----|
Gb|----------------------------------12+|
Db|-------------------------------------|
Ab|-------------------------------------|
Db|-------------------------------------| 
  |
  |GTR II 
eb|-------------------------------------|
Bb|-------------------------------------|
Gb|--9----------------------------------|
Db|--x----------------------------------|
Ab|--7----------------------------------|
Db|-------------------------------------|

   GTR I
eb|----------------------------------12+|
Bb|-12-12----12-12-12h13p12-12----12----|
Gb|-------------------------------------|
Db|-------------------------------------|
Ab|-------------------------------------|
Db|-------------------------------------| 
  |
  |GTR II 
eb|-------------------------------------|
Bb|-------------------------------------|
Gb|-12--------------14------------------|
Db|--x---------------x------------------|
Ab|-10--------------12------------------|
Db|-------------------------------------|

   GTR I
eb|-------------------------------------|
Bb|-12-12----12-12-12h13p12-12----12----|
Gb|----------------------------------12+|
Db|-------------------------------------|
Ab|-------------------------------------|
Db|-------------------------------------| 
  |
  |GTR II 
eb|-------------------------------------|
Bb|-------------------------------------|
Gb|--9----------------------------------|
Db|--x----------------------------------|
Ab|--7----------------------------------|
Db|-------------------------------------|

   GTR I 
eb|-------------------------------------|
Bb|-10----------------------------------|
Gb|-------------------------------------|
Db|-------------------------------------|
Ab|-------------------------------------|
Db|-------------------------------------|
  |
  |GTR II 
eb|-------------------------------------|
Bb|-------------------------------------|
Gb|-7-----------------------------------|
Db|-x-----------------------------------|
Ab|-5-----------------------------------|
Db|-------------------------------------|

Solo

   GTR I (Distortion)
eb|-------------------------------------|
Bb|-------------------------------------|
Gb|-------------------------------------|
Db|--2-----2--2--x--x--2-----2--2--x--x-|
Ab|--2-----2--2--x--x--2-----2--2--x--x-|
Db|--2-----2--2--x--x--2-----2--2--x--x-|
  |
  |GTR II (Distortion)
eb|-------------------------------------|
Bb|-------------------------------------|
Gb|-12\-11/-12----14-14/16-16\14-14\12--|
Db|--x---x---x-----x--x--x--x--x--x--x--|
Ab|-10\--9/-10----12-12/14-14\12-12\10--|
Db|-------------------------------------|

   GTR I
eb|-------------------------------------|
Bb|-------------------------------------|
Gb|-------------------------------------|
Db|--5-----5--5--5-----5/-7--7--7--7--7-|
Ab|--5-----5--5--5-----5/-7--7--7--7--7-|
Db|--5-----5--5--5-----5/-7--7--7--7--7-|
  |
  |GTR II
eb|-------------------------------------|
Bb|-------------------------------------|
Gb|-12\-11/-12----12-12--9--9----9----9-|
Db|--x---x---x-----x--x--x--x----x----x-|
Ab|-10\--9/-10----10-10--7--7----7----7-|
Db|-------------------------------------|

   GTR I
eb|-------------------------------------|
Bb|-------------------------------------|
Gb|-------------------------------------|
Db|--2-----2--2--x--x--2-----2--2--x--x-|
Ab|--2-----2--2--x--x--2-----2--2--x--x-|
Db|--2-----2--2--x--x--2-----2--2--x--x-|
  |
  |GTR II
eb|-------------------------------------|
Bb|-------------------------------------|
Gb|-12-11--9-11--11/-12--12/-14--14/-16-|
Db|--x--x--x--x---x---x---x---x---x---x-|
Ab|-10--9--7--9---9/-10--10/-12--12/-14-|
Db|-------------------------------------|

   GTR I
eb|-------------------------------------|
Bb|-------------------------------------|
Gb|-------------------------------------|
Db|--5-----5--5--5-----5p-0--0--0--0--0-|
Ab|--5-----5--5--5-----5p-0--0--0--0--0-|
Db|--5-----5--5--5-----5p-0--0--0--0--0-|
  |
  |GTR II
eb|-------------------------------------|
Bb|-------------------------------------|
Gb|-16\-14--14\-12--12\-11--11\--7---7--|
Db|--x---x---x---x---x---x---x---x---x--|
Ab|-14\-12--12\-10--10\--9---9\--5---5--|
Db|-------------------------------------|

   GTR I
eb|-------------------------------------|
Bb|-------------------------------------|
Gb|-------------------------------------|
Db|--2-----2--2--x--x--2-----2--2--x--x-|
Ab|--2-----2--2--x--x--2-----2--2--x--x-|
Db|--2-----2--2--x--x--2-----2--2--x--x-|
  |
  |GTR II
eb|-------------------------------------|
Bb|-------------------------------------|
Gb|-12-11--9-11--11/-12--12/-14--14/-16-|
Db|--x--x--x--x---x---x---x---x---x---x-|
Ab|-10--9--7--9---9/-10--10/-12--12/-14-|
Db|-------------------------------------|

   GTR I
eb|-------------------------------------|
Bb|-------------------------------------|
Gb|-------------------------------------|
Db|--5-----5--5--5-----5/-7--7--7--7--7-|
Ab|--5-----5--5--5-----5/-7--7--7--7--7-|
Db|--5-----5--5--5-----5/-7--7--7--7--7-|
  |
  |GTR II
eb|-------------------------------------|
Bb|-------------------------------------|
Gb|-16\14--14\12--12\11-11/12--12\-9--9-|
Db|--x--x---x--x---x--x--x--x---x--x--x-|
Ab|-14\12--12\10--10\-9--9/10--10\-7--7-|
Db|-------------------------------------|

   GTR I
eb|-------------------------------------|
Bb|-------------------------------------|
Gb|-------------------------------------|
Db|--2-----2--2--x--x--2-----2--2--x--x-|
Ab|--2-----2--2--x--x--2-----2--2--x--x-|
Db|--2-----2--2--x--x--2-----2--2--x--x-|
  |
  |GTR II
eb|-------------------------------------|
Bb|-------------------------------------|
Gb|-12-11--9-11--11/-12--12/-14--14/-16-|
Db|--x--x--x--x---x---x---x---x---x---x-|
Ab|-10--9--7--9---9/-10--10/-12--12/-14-|
Db|-------------------------------------|

   GTR I
eb|-------------------------------------|
Bb|-------------------------------------|
Gb|-------------------------------------|
Db|--5-----5--5--5-----5p-0--0--0--0--0-|
Ab|--5-----5--5--5-----5p-0--0--0--0--0-|
Db|--5-----5--5--5-----5p-0--0--0--0--0-|
  |
  |GTR II
eb|-------------------------------------|
Bb|-------------------------------------|
Gb|-14-----16-----19--------------------|
Db|--x------x------x--------------------|
Ab|-12-----14-----17--------------------|
Db|-------------------------------------|

Chorus

   GTR I
eb|-------------------------------------|
Bb|-------------------------------------|
Gb|-------------------------------------|
Db|--2-----2--2--x--x--2-----2--2--x--x-|
Ab|--2-----2--2--x--x--2-----2--2--x--x-|
Db|--2-----2--2--x--x--2-----2--2--x--x-|
  |
  |GTR II 
eb|-------------------------------------|
Bb|-------------------------------------|
Gb|-------------------------------------|
Db|--2-----2--2--x--x--2-----2--2--x--x-|
Ab|--2-----2--2--x--x--2-----2--2--x--x-|
Db|--2-----2--2--x--x--2-----2--2--x--x-|

   GTR I
eb|-------------------------------------|
Bb|-------------------------------------|
Gb|-------------------------------------|
Db|--5-----5--5--5-----5/-7--7--7--7--7-|
Ab|--5-----5--5--5-----5/-7--7--7--7--7-|
Db|--5-----5--5--5-----5/-7--7--7--7--7-|
  |
  |GTR II
eb|-------------------------------------|
Bb|-------------------------------------|
Gb|-------------------------------------|
Db|--5-----5--5--5-----5/-7--7--7--7--7-|
Ab|--5-----5--5--5-----5/-7--7--7--7--7-|
Db|--5-----5--5--5-----5/-7--7--7--7--7-|

   GTR I
eb|-------------------------------------|
Bb|-------------------------------------|
Gb|-------------------------------------|
Db|--2-----2--2--x--x--2-----2--2--x--x-|
Ab|--2-----2--2--x--x--2-----2--2--x--x-|
Db|--2-----2--2--x--x--2-----2--2--x--x-|
  |
  |GTR II
eb|-------------------------------------|
Bb|-------------------------------------|
Gb|-------------------------------------|
Db|--2-----2--2--x--x--2-----2--2--x--x-|
Ab|--2-----2--2--x--x--2-----2--2--x--x-|
Db|--2-----2--2--x--x--2-----2--2--x--x-|

   GTR I
eb|-------------------------------------|
Bb|-------------------------------------|
Gb|-------------------------------------|
Db|--5-----5--5--5-----5p-0--0--0--0--0-|
Ab|--5-----5--5--5-----5p-0--0--0--0--0-|
Db|--5-----5--5--5-----5p-0--0--0--0--0-|
  |
  |GTR II
eb|-------------------------------------|
Bb|-------------------------------------|
Gb|-------------------------------------|
Db|--5-----5--5--5-----5p-0--0--0--0--0-|
Ab|--5-----5--5--5-----5p-0--0--0--0--0-|
Db|--5-----5--5--5-----5p-0--0--0--0--0-|

   GTR I
eb|-------------------------------------|
Bb|-------------------------------------|
Gb|-------------------------------------|
Db|--2-----2--2--x--x--2-----2--2--x--x-|
Ab|--2-----2--2--x--x--2-----2--2--x--x-|
Db|--2-----2--2--x--x--2-----2--2--x--x-|
  |
  |GTR II
eb|-------------------------------------|
Bb|-------------------------------------|
Gb|-------------------------------------|
Db|--2-----2--2--x--x--2-----2--2--x--x-|
Ab|--2-----2--2--x--x--2-----2--2--x--x-|
Db|--2-----2--2--x--x--2-----2--2--x--x-|

   GTR I
eb|-------------------------------------|
Bb|-------------------------------------|
Gb|-------------------------------------|
Db|--5-----5--5--5-----5/-7--7--7--7--7-|
Ab|--5-----5--5--5-----5/-7--7--7--7--7-|
Db|--5-----5--5--5-----5/-7--7--7--7--7-|
  |
  |GTR II
eb|-------------------------------------|
Bb|-------------------------------------|
Gb|-------------------------------------|
Db|--5-----5--5--5-----5/-7--7--7--7--7-|
Ab|--5-----5--5--5-----5/-7--7--7--7--7-|
Db|--5-----5--5--5-----5/-7--7--7--7--7-|

   GTR I
eb|-------------------------------------|
Bb|-------------------------------------|
Gb|-------------------------------------|
Db|--2-----2--2--x--x--2-----2--2--x--x-|
Ab|--2-----2--2--x--x--2-----2--2--x--x-|
Db|--2-----2--2--x--x--2-----2--2--x--x-|
  |
  |GTR II
eb|-------------------------------------|
Bb|-------------------------------------|
Gb|-------------------------------------|
Db|--2-----2--2--x--x--2-----2--2--x--x-|
Ab|--2-----2--2--x--x--2-----2--2--x--x-|
Db|--2-----2--2--x--x--2-----2--2--x--x-|

   GTR I
eb|-------------------------------------|
Bb|-------------------------------------|
Gb|-------------------------------------|
Db|--5-----5--5--5-----5p-0--0--0--0--0-|
Ab|--5-----5--5--5-----5p-0--0--0--0--0-|
Db|--5-----5--5--5-----5p-0--0--0--0--0-|
  |
  |GTR II
eb|-------------------------------------|
Bb|-------------------------------------|
Gb|-------------------------------------|
Db|--5-----5--5--5-----5p-0--0--0--0--0-|
Ab|--5-----5--5--5-----5p-0--0--0--0--0-|
Db|--5-----5--5--5-----5p-0--0--0--0--0-|

   GTR I
eb|-------------------------------------|
Bb|-------------------------------------|
Gb|-------------------------------------|
Db|--2-----2--2--x--x--2-----2--2--x--x-|
Ab|--2-----2--2--x--x--2-----2--2--x--x-|
Db|--2-----2--2--x--x--2-----2--2--x--x-|
  |
  |GTR II 
eb|-------------------------------------|
Bb|-------------------------------------|
Gb|-------------------------------------|
Db|--2-----2--2--x--x--2-----2--2--x--x-|
Ab|--2-----2--2--x--x--2-----2--2--x--x-|
Db|--2-----2--2--x--x--2-----2--2--x--x-|

   GTR I
eb|-------------------------------------|
Bb|-------------------------------------|
Gb|-------------------------------------|
Db|--5-----5--5--5-----5/-7--7--7--7--7-|
Ab|--5-----5--5--5-----5/-7--7--7--7--7-|
Db|--5-----5--5--5-----5/-7--7--7--7--7-|
  |
  |GTR II
eb|-------------------------------------|
Bb|-------------------------------------|
Gb|-------------------------------------|
Db|--5-----5--5--5-----5/-7--7--7--7--7-|
Ab|--5-----5--5--5-----5/-7--7--7--7--7-|
Db|--5-----5--5--5-----5/-7--7--7--7--7-|

   GTR I
eb|-------------------------------------|
Bb|-------------------------------------|
Gb|-------------------------------------|
Db|--2-----2--2--x--x--2-----2--2--x--x-|
Ab|--2-----2--2--x--x--2-----2--2--x--x-|
Db|--2-----2--2--x--x--2-----2--2--x--x-|
  |
  |GTR II
eb|-------------------------------------|
Bb|-------------------------------------|
Gb|-------------------------------------|
Db|--2-----2--2--x--x--2-----2--2--x--x-|
Ab|--2-----2--2--x--x--2-----2--2--x--x-|
Db|--2-----2--2--x--x--2-----2--2--x--x-|

   GTR I
eb|-------------------------------------|
Bb|-------------------------------------|
Gb|-------------------------------------|
Db|--5-----5--5--5-----5p-0--0--0--0--0-|
Ab|--5-----5--5--5-----5p-0--0--0--0--0-|
Db|--5-----5--5--5-----5p-0--0--0--0--0-|
  |
  |GTR II
eb|-------------------------------------|
Bb|-------------------------------------|
Gb|-------------------------------------|
Db|--5-----5--5--5-----5p-0--0--0--0--0-|
Ab|--5-----5--5--5-----5p-0--0--0--0--0-|
Db|--5-----5--5--5-----5p-0--0--0--0--0-|

   GTR I
eb|-------------------------------------|
Bb|-------------------------------------|
Gb|-------------------------------------|
Db|--2-----2--2--x--x--2-----2--2--x--x-|
Ab|--2-----2--2--x--x--2-----2--2--x--x-|
Db|--2-----2--2--x--x--2-----2--2--x--x-|
  |
  |GTR II
eb|-------------------------------------|
Bb|-------------------------------------|
Gb|-------------------------------------|
Db|--2-----2--2--x--x--2-----2--2--x--x-|
Ab|--2-----2--2--x--x--2-----2--2--x--x-|
Db|--2-----2--2--x--x--2-----2--2--x--x-|

   GTR I
eb|-------------------------------------|
Bb|-------------------------------------|
Gb|-------------------------------------|
Db|--5-----5--5--5-----5/-7--7--7--7--7-|
Ab|--5-----5--5--5-----5/-7--7--7--7--7-|
Db|--5-----5--5--5-----5/-7--7--7--7--7-|
  |
  |GTR II
eb|-------------------------------------|
Bb|-------------------------------------|
Gb|-------------------------------------|
Db|--5-----5--5--5-----5/-7--7--7--7--7-|
Ab|--5-----5--5--5-----5/-7--7--7--7--7-|
Db|--5-----5--5--5-----5/-7--7--7--7--7-|

   GTR I
eb|-------------------------------------|
Bb|-------------------------------------|
Gb|-------------------------------------|
Db|--2-----2--2--x--x--2-----2--2--x--x-|
Ab|--2-----2--2--x--x--2-----2--2--x--x-|
Db|--2-----2--2--x--x--2-----2--2--x--x-|
  |
  |GTR II
eb|-------------------------------------|
Bb|-------------------------------------|
Gb|-------------------------------------|
Db|--2-----2--2--x--x--2-----2--2--x--x-|
Ab|--2-----2--2--x--x--2-----2--2--x--x-|
Db|--2-----2--2--x--x--2-----2--2--x--x-|

   GTR I
eb|-------------------------------------|
Bb|-------------------------------------|
Gb|-------------------------------------|
Db|--5-----5--5--5-----5p-0--0--0--0--0-|
Ab|--5-----5--5--5-----5p-0--0--0--0--0-|
Db|--5-----5--5--5-----5p-0--0--0--0--0-|
  |
  |GTR II
eb|-------------------------------------|
Bb|-------------------------------------|
Gb|-------------------------------------|
Db|--5-----5--5--5-----5p-0--0--0--0--0-|
Ab|--5-----5--5--5-----5p-0--0--0--0--0-|
Db|--5-----5--5--5-----5p-0--0--0--0--0-|

Pre-Verse

   GTR I
eb|-------------------------------------|
Bb|-------------------------------------|
Gb|-------------------------------------|
Db|--2-----2--2--x--x--2-----2--2--x--x-|
Ab|--2-----2--2--x--x--2-----2--2--x--x-|
Db|--2-----2--2--x--x--2-----2--2--x--x-|
  |
  |GTR II
eb|--------------------------12+--------|
Bb|-------------------12-------------12-|
Gb|--9-----------9--9-------------------|
Db|-------------------------------------|
Ab|-------------------------------------|
Db|-------------------------------------|

   GTR I
eb|-------------------------------------|
Bb|-------------------------------------|
Gb|-------------------------------------|
Db|--5-----5--5--5-----5/-7--7--7--7--7-|
Ab|--5-----5--5--5-----5/-7--7--7--7--7-|
Db|--5-----5--5--5-----5/-7--7--7--7--7-|
  |
  |GTR II
eb|----------------------------14----15-|
Bb|-10-------------10-10/15-------------|
Gb|-------------------------------------|
Db|-------------------------------------|
Ab|-------------------------------------|
Db|-------------------------------------|

   GTR I
eb|-------------------------------------|
Bb|-------------------------------------|
Gb|-------------------------------------|
Db|--2-----2--2--x--x--2-----2--2--x--x-|
Ab|--2-----2--2--x--x--2-----2--2--x--x-|
Db|--2-----2--2--x--x--2-----2--2--x--x-|
  |
  |GTR II
eb|--------------------------12+--------|
Bb|-------------------12-------------12-|
Gb|--9-----------9--9-------------------|
Db|-------------------------------------|
Ab|-------------------------------------|
Db|-------------------------------------|

   GTR I
eb|-------------------------------------|
Bb|-------------------------------------|
Gb|-------------------------------------|
Db|--5-----5--5--5-----5p-0--0--0--0--0-|
Ab|--5-----5--5--5-----5p-0--0--0--0--0-|
Db|--5-----5--5--5-----5p-0--0--0--0--0-|
  |
  |GTR II
eb|----------------------------15p14----|
Bb|-10-------------10-10-15----------15-|
Gb|-------------------------------------|
Db|-------------------------------------|
Ab|-------------------------------------|
Db|-------------------------------------|

   GTR I
eb|-------------------------------------|
Bb|-------------------------------------|
Gb|-------------------------------------|
Db|--2-----2--2--x--x--2-----2--2--x--x-|
Ab|--2-----2--2--x--x--2-----2--2--x--x-|
Db|--2-----2--2--x--x--2-----2--2--x--x-|
  |
  |GTR II
eb|--------------------------12+--------|
Bb|-------------------12-------------12-|
Gb|--9-----------9--9-------------------|
Db|-------------------------------------|
Ab|-------------------------------------|
Db|-------------------------------------|

   GTR I
eb|-------------------------------------|
Bb|-------------------------------------|
Gb|-------------------------------------|
Db|--5-----5--5--5-----5/-7--7--7--7--7-|
Ab|--5-----5--5--5-----5/-7--7--7--7--7-|
Db|--5-----5--5--5-----5/-7--7--7--7--7-|
  |
  |GTR II
eb|----------------------------14----15-|
Bb|-10-------------10-10/15-------------|
Gb|-------------------------------------|
Db|-------------------------------------|
Ab|-------------------------------------|
Db|-------------------------------------|

   GTR I
eb|-------------------------------------|
Bb|-------------------------------------|
Gb|-------------------------------------|
Db|--2-----2--2--x--x--2-----2--2--x--x-|
Ab|--2-----2--2--x--x--2-----2--2--x--x-|
Db|--2-----2--2--x--x--2-----2--2--x--x-|
  |
  |GTR II
eb|--------------------------12+--------|
Bb|-------------------12-------------12-|
Gb|--9-----------9--9-------------------|
Db|-------------------------------------|
Ab|-------------------------------------|
Db|-------------------------------------|

   GTR I
eb|-------------------------------------|
Bb|-------------------------------------|
Gb|-------------------------------------|
Db|--5-----5--5--5-----5p-0--0--0--
comments
We did not receive enough feedback on this tab! Please rate:
1 2 3 4 5
I want to post or [tab]
guest
You may want to rate the tab now too:
select rating
Please do not post tabs as comments. Select "correction" instead!