Oops, an error
Loading. Please wait.

Deathless Tab

54 views 1 this week
no commentswrite comment
1 2 3 4 5
please rate
add to favorites launch autoscroll
font size
0
reset
Autoscroll
+/-
esc
set tempo
stop
Contributor
Difficulty
Tuning
intermediate
C G C F A D
WARNING: You are trying to view
                                    content from Ultimate-Guitar.com
                                    in an unauthorized application,
                                    which is prohibited.

                                    Please use an official Ultimate
                                    Guitar Tabs application for iPhone,
                                    iPad or Android to access legitimate
                                    chords, guitar, bass, and drum tabs
                                    from Ultimate-Guitar.com database.

                                    Type "ultimate guitar tabs" in Apple
                                    App Store's or Android Market's
                                    search to find the application.
One of the heavier songs on the Stitch Ep.


Intro:

(Rhythm)

D|------------------------------------------------|
A|--------------------------------------------8\--|
F|------------------------------------------------|
C|--------------------------------------------6\--|
G|-1p0--0-1-3-1-0-0-0-1p0--1p0--0-1-3-1-0-0-0-----|
C|-1p0--0-1-3-1-0-0-0-1p0--1p0--0-1-3-1-0-0-0-----|

D|-------------------------------------------------------------------------|
A|-------------------------------------------------------------------------|
F|-------------------------------------------------------------------------|
C|-------------------------------------------------------------------------|
G|-1p0--0-1-3-1-0-0-0-1p0--1p0--0-1-3-1-0-0-0-1p0--1p0--0-1-3-1-0-0-0-1p0--|
C|-1p0--0-1-3-1-0-0-0-1p0--1p0--0-1-3-1-0-0-0-1p0--1p0--0-1-3-1-0-0-0-1p0--|

D|-------------------------|
A|-------------------------|
F|-------------------------|
C|-------------------------|
G|-1p0--0-1-3-1-0-0-0-1p0--|
C|-1p0--0-1-3-1-0-0-0-1p0--|

(Lead)

D|--------------------------------------------------------------------------|
A|--------------------------------------------------------------------------|
F|-xx-xx-xx-xx-xx-xx-xx-xx-xx-xx-xx-xx-xx-xx-xx-xx-xx-xx-xx-xx-xx-xx-xx-xx--|
C|-15-15-15-15-15-15-15-15-15-15-15-15-17-17-17-17-19-19-19-19-19-19-19-19--|
G|-xx-xx-xx-xx-xx-xx-xx-xx-xx-xx-xx-xx-xx-xx-xx-xx-xx-xx-xx-xx-xx-xx-xx-xx--|
C|-xx-xx-xx-xx-xx-xx-xx-xx-xx-xx-xx-xx-xx-xx-xx-xx-xx-xx-xx-xx-xx-xx-xx-xx--|

D|--------------------------------------------------------------------------|
A|--------------------------------------------------------------------------|
F|-xx-xx-xx-xx-xx-xx-xx-xx-xx-xx-xx-xx-xx-xx-xx-xx-xx-xx-xx-xx-xx-xx-xx-xx--|
C|-19-19-19-19-17-17-17-17-15-15-15-15-15-15-15-15-15-15-15-15-17-17-17-17--|
G|-xx-xx-xx-xx-xx-xx-xx-xx-xx-xx-xx-xx-xx-xx-xx-xx-xx-xx-xx-xx-xx-xx-xx-xx--|
C|-xx-xx-xx-xx-xx-xx-xx-xx-xx-xx-xx-xx-xx-xx-xx-xx-xx-xx-xx-xx-xx-xx-xx-xx--|

D|-------------------------------------------------|
A|-------------------------------------------------|
F|-xx-xx-xx-xx-xx-xx-xx-xx-xx-xx-xx-xx-xx-xx-xx-xx-|
C|-14-14-14-14-14-14-14-14-20-20-20-20-19-19-19-19-|
G|-xx-xx-xx-xx-xx-xx-xx-xx-xx-xx-xx-xx-xx-xx-xx-xx-|
C|-xx-xx-xx-xx-xx-xx-xx-xx-xx-xx-xx-xx-xx-xx-xx-xx-|

Intro 2:

(Rhythm)

D|-----------------------------------------------------------------|
A|-----------------------------------------------------------------|
F|-----------------------------------------------------------------|
C|-----------------------------------------------------------------|
G|-1-0-1-0-1-3-1-0-1-0-1-0-1-3-1-0-1-0-1-0-1-3-1-0-1-0-1-0-1-3-1-0-|
C|-1-0-1-0-1-3-1-0-1-0-1-0-1-3-1-0-1-0-1-0-1-3-1-0-1-0-1-0-1-3-1-0-|

D|----------------------------------------------------------------|
A|----------------------------------------------------------------|
F|----------------------------------------------------------------|
C|--------------------------------7-5-3---------------------------| x2
G|1-0-1-0-1-3-1-0-1-0-1-0-1-3-1-0-------7-5-3---------------------|
C|1-0-1-0-1-3-1-0-1-0-1-0-1-3-1-0-------------6-5-3-5-3-0-1-3-1-0-|

(Lead)

D|-----------------------------------------------------------------|
A|-----------------------------------------------------------------|
F|-7-7-7-7-7-7-7-7-7-7-7-7-9-9-9-9-1010101010101010101010109-9-9-9-|
C|-----------------------------------------------------------------|
G|-5-5-5-5-5-5-5-5-5-5-5-5-7-7-7-7-8-8-8-8-8-8-8-8-8-8-8-8-7-7-7-7-|
C|-----------------------------------------------------------------|

D|-------------------------------------------------------------------------|
A|-------------------------------------------------------------------------|
F|-7-7-7-7-7-7-7-7-7-7-7-7-9-9-9-9-6-6-6-6-6-6-6-6-14-14-14-14-12-12-12-12-|
C|-------------------------------------------------------------------------| x2
G|-5-5-5-5-5-5-5-5-5-5-5-5-7-7-7-7-4-4-4-4-4-4-4-4-12-12-12-12-10-10-10-10-|
C|-------------------------------------------------------------------------|

Verse:

D|------------------------------------------------------------------------------|
A|------------------------------------------------------------------------------|
F|------------------------------------------------------------------------------|
C|---------------------------------------------------------10-0-8-7-------------|
G|-5p0-------------5-0-0-7-0-8-0-7-5-------------8-0-0-7-0----------------------|
C|-----0-0-000-0-0-------------------0-0-000-0-0--------------------0-0-000-0-0-|
pm     . . ... . .   . .   .   .     . . ... . .   . .   .    .     . . ... . .

D|------------------------------------------------------|
A|------------------------------------------------------|
F|------------------------------------------------------|
C|-----------------1010101088887777---------------------| x4
G|-5-0-0-7-0-8-0-7-----------------8888777755553333-5~--|
C|------------------------------------------------------|
pm   . .   .   .

Chorus:

(Rhythm)

D|-----------------------------------------------------------------|
A|-----------------------------------------------------------------|
F|-----------------------------------------------------------------|
C|-----------------------------------------------------------------|
G|-1-0-1-0-1-3-1-0-1-0-1-0-1-3-1-0-1-0-1-0-1-3-1-0-1-0-1-0-1-3-1-0-|
C|-1-0-1-0-1-3-1-0-1-0-1-0-1-3-1-0-1-0-1-0-1-3-1-0-1-0-1-0-1-3-1-0-|

D|----------------------------------------------------------------|
A|----------------------------------------------------------------|
F|----------------------------------------------------------------|
C|--------------------------------7-5-3---------------------------| x2
G|1-0-1-0-1-3-1-0-1-0-1-0-1-3-1-0-------7-5-3---------------------|
C|1-0-1-0-1-3-1-0-1-0-1-0-1-3-1-0-------------6-5-3-5-3-0-1-3-1-0-|

(Lead)

D|-----------------------------------------------------------------|
A|-----------------------------------------------------------------|
F|-7-7-7-7-7-7-7-7-7-7-7-7-9-9-9-9-1010101010101010101010109-9-9-9-|
C|-----------------------------------------------------------------|
G|-5-5-5-5-5-5-5-5-5-5-5-5-7-7-7-7-8-8-8-8-8-8-8-8-8-8-8-8-7-7-7-7-|
C|-----------------------------------------------------------------|

D|-------------------------------------------------------------------------|
A|-------------------------------------------------------------------------|
F|-7-7-7-7-7-7-7-7-7-7-7-7-9-9-9-9-6-6-6-6-6-6-6-6-14-14-14-14-12-12-12-12-|
C|-------------------------------------------------------------------------| x2
G|-5-5-5-5-5-5-5-5-5-5-5-5-7-7-7-7-4-4-4-4-4-4-4-4-12-12-12-12-10-10-10-10-|
C|-------------------------------------------------------------------------|

Verse 2:

D|------------------------------------------------------------------------------|
A|------------------------------------------------------------------------------|
F|------------------------------------------------------------------------------|
C|---------------------------------------------------------10-0-8-7-------------|
G|-5p0-------------5-0-0-7-0-8-0-7-5-------------8-0-0-7-0----------------------|
C|-----0-0-000-0-0-------------------0-0-000-0-0--------------------0-0-000-0-0-|
pm     . . ... . .   . .   .   .     . . ... . .   . .   .    .     . . ... . .

D|------------------------------------------------------|
A|------------------------------------------------------|
F|------------------------------------------------------|
C|-----------------1010101088887777---------------------| x4
G|-5-0-0-7-0-8-0-7-----------------8888777755553333-5~--|
C|------------------------------------------------------|
pm   . .   .   .

Bridge:

(Rhythm)


D|---------------------------------------------------------|
A|---------------------------------------------------------|
F|---------------------------------------------------------|
C|---------------------------------------------------------|
G|-1-0-1-0-1-3-1-0-1-0-1-0-1-3-1-0---------10--7h8p7h8p7h8-|
C|-1-0-1-0-1-3-1-0-1-0-1-0-1-3-1-0-8-8-8-8-----------------|
pm                                 . . . .

D|------------------------|
A|------------------------|
F|------------------------|
C|------------------------|
G|---------5--2h3p2h3p2h3-|
C|-3-3-3-3----------------|
pm . . . .

D|-----------------------------------------------|
A|-----------------------------------------------|
F|-----------------------------------------------|
C|-----------------------------------------------|
G|-1-0-1-0-1-3-1-0-1-0-1-0-1-3-1-0---------8--7--|
C|-1-0-1-0-1-3-1-0-1-0-1-0-1-3-1-0-8-8-8-8-------|
pm                                 . . . .

D|------------------------|
A|------------------------|
F|------------------------|
C|------------------------| x2
G|---------5--3p0---------|
C|-3-3-3-3----------------|
pm . . . .

(Lead)

D|----------------------------------------------------------|
A|----------------------------------------------------------|
F|----------------------------------------------------------|
C|-----------------------------------------10--7h8p7h8p7h8--|
G|-1-0-1-0-1-3-1-0-1-0-1-0-1-3-1-0--------------------------|
C|-1-0-1-0-1-3-1-0-1-0-1-0-1-3-1-0-8-8-8-8------------------|
pm                                 . . . .

D|------------------------|
A|------------------------|
F|------------------------|
C|---------5--2h3p2h3p2h3-|
G|------------------------|
C|-3-3-3-3----------------|
pm . . . .

D|-----------------------------------------------|
A|-----------------------------------------------|
F|-----------------------------------------------|
C|-----------------------------------------8--7--|
G|-1-0-1-0-1-3-1-0-1-0-1-0-1-3-1-0---------------|
C|-1-0-1-0-1-3-1-0-1-0-1-0-1-3-1-0-8-8-8-8-------|
pm                                 . . . .


D|------------------------|
A|------------------------|
F|------------------------|
C|---------5--3p0---------| x2
G|------------------------|
C|-3-3-3-3----------------|
pm . . . .

(Both)

D|------------------|
A|------------------|
F|------------------|
C|-^8~-V10~-^3~-V5~-|
G|-^8~-V8~--^3~-V3~-|
C|-^8~-V8~--^3~-V3~-|

Breakdown 1:

D|---------------------------------------------------|
A|---------------------------------------------------|
F|---------------------------------------------------|
C|---------------------------------------------------| x4
G|-------------------------------------------6-3-5-1-|
C|-0-0--0-0--0-0-0-0--0-0--0-0-0-0--0-0--0-0-6-3-5-1-|
pm .    .    . . .    .    . . .    .    . .

Breakdown 2:

D|-------------------------------------------------|
A|-------------------------------------------------|
F|-------------------------------------------------|
C|-------------------------------------------------|
G|-0--0--0-1-0-0--0--0-1-0-0--0--0-1-0-0--0--0-1-0-|
C|-0--0--0-1-0-0--0--0-1-0-0--0--0-1-0-0--0--0-1-0-|

D|-----------------------------------------------------|
A|-----------------------------------------------------|
F|-----------------------------------------------------|
C|-------------------------------------------------6-9-|
G|-0--0--0-1-0-0--0--0-1-0-0--0--0-1-0-0--0--0-5-8-----|
C|-0--0--0-1-0-0--0--0-1-0-0--0--0-1-0-0--0--0---------|

D|-------------------------------------------------|
A|-------------------------------------------------|
F|-------------------------------------------------|
C|-------------------------------------------------|
G|-0--0--0-1-0-0--0--0-1-0-0--0--0-1-0-0--0--0-1-0-|
C|-0--0--0-1-0-0--0--0-1-0-0--0--0-1-0-0--0--0-1-0-|
pm .  .  . . . .  .  . . . .  .  . . . .  .  . . .

D|----------------------------------------------------|
A|----------------------------------------------------|
F|----------------------------------------------------|
C|----------------------------------------------------|
G|-0--0--0-1-0-0--0--0-1-0-0--0--0-1-0-0--0--0-1-0-0~~|
C|-0--0--0-1-0-0--0--0-1-0-0--0--0-1-0-0--0--0-1-0-0~~|
pm .  .  . . . .  .  . . . .  .  . . . .  .  . . .
comments
We did not receive enough feedback on this tab! Please rate:
print report bad tab
1 2 3 4 5
I want to post or [tab]
guest
You may want to rate the tab now too:
select rating
Please do not post tabs as comments. Select "correction" instead!