Oops, an error
Loading. Please wait.

Come And Get It Tab

6,769 views 21 this week
no commentswrite comment
1 2 3 4 5
worth learning
x 1
Autoscroll
+/-
esc
set tempo
stop
Contributor
Difficulty
intermediate
WARNING: You are trying to view
                                    content from Ultimate-Guitar.com
                                    in an unauthorized application,
                                    which is prohibited.

                                    Please use an official Ultimate
                                    Guitar Tabs application for iPhone,
                                    iPad or Android to access legitimate
                                    chords, guitar, bass, and drum tabs
                                    from Ultimate-Guitar.com database.

                                    Type "ultimate guitar tabs" in Apple
                                    App Store's or Android Market's
                                    search to find the application.
This rendition of "Come and Get It" by Selena Gomez is based the Audio Only 
version of the song that I watched on YouTube. It is currently available under the 
username "SelenaGomezVEVO".

The song is composed in the key of G minor. Near the end of the song, it sounds as 
if it temporarily modulates to the relative major key of Bb. However, the F major 
chord in the progression (Eb, Cm, Gm, F) could be explained as a V (F) tonicizing 
a III (Bb) in the key of G minor and failing to resolve. It's arguable. In terms 
of its rhythmic properties, the song conventionally utilizes common time (4/4) at 
a tempo of approximately 80 beats per minute. 

Enjoy!


[GUIDE]

| W = Whole Note
| H = Half Note
| Q = Quarter Note
| E = Eighth Note
| S = Sixteenth Note
| () = Optional Note
| . = Dotted Note
| + = Tied Note
| * = Rest
| |--3--| = Triplet
| / = Slide up
| \ = Slide down
| h = Hammer-on
| p = Pull-off
| ~ = Vibrato
| x = Mute note
| b = Bend
| br = Bend release
| P.M. = Palm mute



[BACKGROUND SYNTHESIZER]

This is played during the [MAIN REFRAIN].

The slides are supposed to be played rapidly.

(Chords)      Gm      Bb              Eb      Cm        (x3)    Gm      Bb           Eb    Cm
(Treble)      H       Q.    E         H       Q.    E           H       H            W
     e||--------------------15--|------------------------||--------------------|-----------------||
     B||o--13/15---15/18--------|--15\11---11/13----11--o||--13/15---15\13-----|--13\11----------||
     G||------------------------|------------------------||--------------------|-----------------||
     D||------------------------|------------------------||--------------------|-----------------||
     A||o-----------------------|-----------------------o||--------------------|-----------------||
     E||------------------------|------------------------||--------------------|-----------------||
(Rhythm)      1   2   3  4  &         1   2   3  4  &           1   2   3   4        1  2  3  4


This next one is played during the [MAIN REFRAIN], [VERSE 1], and [VERSE 2].

In the [MAIN REFRAIN], the last note goes back up to D instead of staying on C.

For the beginning of [VERSE 2], the ending chord changes after a brief pause. 
Afterwards, it is repeated the same way as [VERSE 1] 3 times.

The triplets are meant to be played in a fast swing style.


For [MAIN REFRAIN]
 
      Gm                  Bb                     Eb                  Cm
      |---P.M.---|        |---P.M.---|           |---P.M.---|        |---P.M.---|
      |-3-|  |-3-|        |-3-|  |-3-|           |-3-|  |-3-|        |-3-|  |-3-|
      E   S  E   S  E  E  E   S  E   S  E  E     E   S  E   S  E  E  E   S  E   S  E  E  (x4)
e||-------------------------------------------|-------------------------------------------||
B||o------------------------------------------|------------------------------------------o||
G||-------------------------------------------|--8---8--8---8--8--7--5---5--5---5--5--7---||
D||---5---5--5---5--5--5--8---8--8---8--8--8--|-------------------------------------------||
A||o------------------------------------------|--6---6--6---6--6--5--3---3--3---3--3--5--o||
E||---3---3--3---3--3--3--6---6--6---6--6--6--|-------------------------------------------||
      1      &      2  &  3      &      4  &     1      &      2  &  3      &      4  &

For [VERSE 1]

      Gm                  Bb                     Eb                  Cm
      |---P.M.---|        |---P.M.---|           |---P.M.---|        |---P.M.---|
      |-3-|  |-3-|        |-3-|  |-3-|           |-3-|  |-3-|        |-3-|  |-3-|
      E   S  E   S  E  E  E   S  E   S  E  E     E   S  E   S  E  E  E   S  E   S  E  E  (x4)
e||-------------------------------------------|-------------------------------------------||
B||o------------------------------------------|------------------------------------------o||
G||-------------------------------------------|--8---8--8---8--8--7--5---5--5---5--5--5---||
D||---5---5--5---5--5--5--8---8--8---8--8--8--|-------------------------------------------||
A||o------------------------------------------|--6---6--6---6--6--5--3---3--3---3--3--3--o||
E||---3---3--3---3--3--3--6---6--6---6--6--6--|-------------------------------------------||
      1      &      2  &  3      &      4  &     1      &      2  &  3      &      4  &

For [VERSE 2]

     Gm                  Bb                     Eb                 F
     |---P.M.---|        |---P.M.---|           |---P.M.---|
     |-3-|  |-3-|        |-3-|  |-3-|           |-3-|  |-3-|        
     E   S  E   S  E  E  E   S  E   S  E  E     E   S  E   S   Q   Q  E  E
e||------------------------------------------|------------------------------||
B||------------------------------------------|-----------------*------------||
G||------------------------------------------|--8---8--8---8---*------5--5--||
D||--5---5--5---5--5--5--8---8--8---8--8--8--|-----------------*---3--------||
A||------------------------------------------|--6---6--6---6---*------3--3--||
E||--3---3--3---3--3--3--6---6--6---6--6--6--|---------------------1--------||
     1      &      2  &  3      &      4  &     1      &       2   3  4  &


This final part is played at the end of some lyrics in [VERSE 1] and [VERSE 2]

     Eb                      Cm
        |-3-|  |-3-|  |-3-|  |-3-|  |-3-|  |-3-|  |-3-|
     E  E   S  E   S  E   S  E   S  E   S  E   S  E   S
e||------------------------------------------------------||
B||--*--6-h-8------6-------------------------------------||
G||--*---------7------5-h-7------5-----------------------||
D||--*-----------------------8------5-h-8------5---------||
A||--*-------------------------------------8------5-h-8--||
E||------------------------------------------------------||
     1  &      2      &      3      &      4      &   


[INTRO]

Gm, Bb, Eb, Cm

Gm, Bb, Eb(add9)


[MAIN REFRAIN]

Gm                            Bb    
  When you're ready, come and get it
              Eb  
  Nah nah nah nah 
              Cm
  Nah nah nah nah
              Gm
  Nah nah nah nah

                              Bb
  When you're ready, come and get it
              Eb
  Nah nah nah nah
              Cm
  Nah nah nah nah
              Gm
  Nah nah nah nah
                       Bb
  When you're re-e-e-e-e-e-eady
              Eb             Cm
  When you're re-e-e-e-e-e-eady (eady, eady)

Gm                           Bb
  When you're ready come and get it
              Eb
  Nah nah nah nah
              Cm
  Nah nah nah nah
              Gm
  Nah nah nah nah


[VERSE 1]

                Bb                      Eb      Cm     Gm
You ain't gotta worry, it's an open invitation
        Bb                       Eb       Cm
I'll be sittin' right here, real patient
    Gm                      Bb
All day, all night, I'll be waitin' standby
      Eb                      Cm
Can't stop because I love it, hate the way I love you
    Gm                Bb                 Eb       Cm     Gm
All day, all night, maybe I'm addicted for life, no lie


[BRIDGE]

Bb                 Eb               Cm         Gm
I'm not too shy to show I love you, I got no regrets
  Bb                 Eb                     Cm                   Gm    Bb    Eb
I love you much, too much to hide you, this love ain't finished yet
      Cm                  Gm    F    Eb(add9)
This love ain't finished yet

So baby whenever you're ready


[REPEAT MAIN REFRAIN] x 1


[VERSE 2]

                    Bb                       Eb        F    Gm
You got the kind of love that I want, let me get that
                Bb                   Eb          Cm
And baby once I get it, I'm yours no take backs
         Gm                         Bb
I'm gon' love you for life, I ain't leaving your side
 Eb                    Cm
Even if you knock it, ain't no way to stop it
   Gm                 Bb                 Eb      Cm     Gm
Forever you're mine, baby I'm addicted, no lie, no lie


[BRIDGE 2]

Bb                 Eb               Cm         Gm      F    Eb(add9)   
I'm not too shy to show I love you, I got no regrets.

So baby whenever you're ready


[REPEAT MAIN REFRAIN] x 1 (End on an Eb chord)


[INTERLUDE]

Eb               Cm                  Gm
  This love will be the death of me
                  F            Eb
  But I know I'll die happily
                    Cm             Gm
  I'll know, I'll know, I'll know
                      F
  Because you love me so

  Yeah!


[REPEAT MAIN REFRAIN] x 1
comments
We did not receive enough feedback on this tab! Please rate:
print report bad tab
1 2 3 4 5
I want to post or [tab]
guest
You may want to rate the tab now too:
select rating
Please do not post tabs as comments. Select "correction" instead!