Oops, an error
Loading. Please wait.

Closing Time Tab

ver5
2,784 views 9 this week
no commentswrite comment
1 2 3 4 5
worth learning
x 5
Autoscroll
+/-
esc
set tempo
stop
Contributor
WARNING: You are trying to view
                                    content from Ultimate-Guitar.com
                                    in an unauthorized application,
                                    which is prohibited.

                                    Please use an official Ultimate
                                    Guitar Tabs application for iPhone,
                                    iPad or Android to access legitimate
                                    chords, guitar, bass, and drum tabs
                                    from Ultimate-Guitar.com database.

                                    Type "ultimate guitar tabs" in Apple
                                    App Store's or Android Market's
                                    search to find the application.
Closing Time                                   


                                                             
Guitar 1



                                                                
E||-----------------------------|------------------------------|
B||-----------------------------|------------------------------|
G||--------4-------------7------|-----------------------5------|
D||--5--5--5--5-5-7-7-7--7--7-7-|--7-7-7--7--7-7-5-5-5--5--5-5-|
A||--5--5--5--5-5-5-5-5--5--5-5-|--7-7-7--7--7-7-3-3-3--3--3-3-|
E||--3--3--3--3-3-5-5-5--5--5-5-|--5-5-5--5--5-5-3-3-3--3--3-3-|


                                                               3x
|------------------------------|-------------------------------||
|------------------------------|-------------------------------||
|*--------4-------------7------|-----------------------5------*||
|*--5--5--5--5-5-7-7-7--7--7-7-|--7-7-7--7--7-7-5-5-5--5--5-5-*||
|---5--5--5--5-5-5-5-5--5--5-5-|--7-7-7--7--7-7-3-3-3--3--3-3--||
|---3--3--3--3-3-5-5-5--5--5-5-|--5-5-5--5--5-5-3-3-3--3--3-3--||


                                                           
---3----3--x-x-x-x-3--2--2-2-|--0----0--x-x-x-x-0--0--0-0-|
---3----3--x-x-x-x-3--3--3-3-|--1----1--x-x-x-x-1--1--1-1-|
*--0----0--x-x-x-x-0--2--2-2-|--2----2--x-x-x-x-2--0--0-0-|
*--0----0--x-x-x-x-0--0--0-0-|--2----2--x-x-x-x-2--2--2-2-|
---x----x--x-x-x-x-x--0--0-0-|--0----0--x-x-x-x-0--3--3-3-|
---2----2--x-x-x-x-2--x--x-x-|--x----x--x-x-x-x-x--x--x-x-|


                                                            
--3----3--x-x-x-x-3--2--2-2-|--0----0--x-x-x-x-0--0--0-0--||
--3----3--x-x-x-x-3--3--3-3-|--1----1--x-x-x-x-1--1--1-1--||
--0----0--x-x-x-x-0--2--2-2-|--2----2--x-x-x-x-2--0--0-0-*||
--0----0--x-x-x-x-0--0--0-0-|--2----2--x-x-x-x-2--2--2-2-*||
--x----x--x-x-x-x-x--0--0-0-|--0----0--x-x-x-x-0--3--3-3--||
--2----2--x-x-x-x-2--x--x-x-|--x----x--x-x-x-x-x--x--x-x--||


                                                              
------------------------------|------------------------------|
------------------------------|------------------------------|
*--------4-------------7------|-----------------------5------|
*--5--5--5--5-5-7-7-7--7--7-7-|--7-7-7--7--7-7-5-5-5--5--5-5-|
---5--5--5--5-5-5-5-5--5--5-5-|--7-7-7--7--7-7-3-3-3--3--3-3-|
---3--3--3--3-3-5-5-5--5--5-5-|--5-5-5--5--5-5-3-3-3--3--3-3-|


                                                               
-----------------------------|-------------------------------||
-----------------------------|-------------------------------||
--------4-------------7------|-----------------------5------*||
--5--5--5--5-5-7-7-7--7--7-7-|--7-7-7--7--7-7-5-5-5--5--5-5-*||
--5--5--5--5-5-5-5-5--5--5-5-|--7-7-7--7--7-7-3-3-3--3--3-3--||
--3--3--3--3-3-5-5-5--5--5-5-|--5-5-5--5--5-5-3-3-3--3--3-3--||


    Distored Could be power chords                                                       
---3----3--x-x-x-x-3--2--2-2-|--0----0--x-x-x-x-0--0--0-0-|
---3----3--x-x-x-x-3--3--3-3-|--1----1--x-x-x-x-1--1--1-1-|
*--0----0--x-x-x-x-0--2--2-2-|--2----2--x-x-x-x-2--0--0-0-|
*--0----0--x-x-x-x-0--0--0-0-|--2----2--x-x-x-x-2--2--2-2-|
---x----x--x-x-x-x-x--0--0-0-|--0----0--x-x-x-x-0--3--3-3-|
---2----2--x-x-x-x-2--x--x-x-|--x----x--x-x-x-x-x--x--x-x-|


                                                            
--3----3--x-x-x-x-3--2--2-2-|--0----0--x-x-x-x-0--0--0-0--||
--3----3--x-x-x-x-3--3--3-3-|--1----1--x-x-x-x-1--1--1-1--||
--0----0--x-x-x-x-0--2--2-2-|--2----2--x-x-x-x-2--0--0-0-*||
--0----0--x-x-x-x-0--0--0-0-|--2----2--x-x-x-x-2--2--2-2-*||
--x----x--x-x-x-x-x--0--0-0-|--0----0--x-x-x-x-0--3--3-3--||
--2----2--x-x-x-x-2--x--x-x-|--x----x--x-x-x-x-x--x--x-x--||


                                                               
--------------------|--------------------|--------------------|
--------------------|-----------2--------|--------------------|
--------------------|--8--------5--------|--------------------|
--8--------6--------|--8--------5--------|--8--------6--------|
--8--------6--------|--6--------3--------|--8--------6--------|
--6--------4--------|--------------------|--6--------4--------|


                                                               
--------------------|--------------------|--------------------|
-----------2--------|--------------------|-----------2--------|
--8--------5--------|--------------------|--8--------5--------|
--8--------5--------|--8--------6--------|--8--------5--------|
--6--------3--------|--8--------6--------|--6--------3--------|
--------------------|--6--------4--------|--------------------|


                                                               3x           
|------------------------------|-------------------------------||----------|
|------------------------------|-------------------------------||----------|
|*--------4-------------7------|-----------------------5------*||----------|
|*--5--5--5--5-5-7-7-7--7--7-7-|--7-7-7--7--7-7-5-5-5--5--5-5-*||----------|
|---5--5--5--5-5-5-5-5--5--5-5-|--7-7-7--7--7-7-3-3-3--3--3-3--||----------|
|---3--3--3--3-3-5-5-5--5--5-5-|--5-5-5--5--5-5-3-3-3--3--3-3--||----------|


                                                                             
----------|----------|----------|----------|----------|----------|----------|
----------|----------|----------|----------|----------|----------|----------|
----------|----------|----------|----------|----------|----------|----------|
----------|----------|----------|----------|----------|----------|----------|
----------|----------|----------|----------|----------|----------|----------|
----------|----------|----------|----------|----------|----------|----------|


                                                                        
----------|-----------------------------|------------------------------|
----------|-----------------------------|------------------------------|
----------|--------4-------------7------|-----------------------5------|
----------|--5--5--5--5-5-7-7-7--7--7-7-|--7-7-7--7--7-7-5-5-5--5--5-5-|
----------|--5--5--5--5-5-5-5-5--5--5-5-|--7-7-7--7--7-7-3-3-3--3--3-3-|
----------|--3--3--3--3-3-5-5-5--5--5-5-|--5-5-5--5--5-5-3-3-3--3--3-3-|


                                                                     
-----------------------------|--5----------------|------------------|
-----------------------------|--5----------------|------------------|
--------4-------------7------|--5----------------|------------------|
--5--5--5--5-5-7-7-7--7--7-7-|--7----------------|------------------|
--5--5--5--5-5-5-5-5--5--5-5-|--7----------------|------------------|
--3--3--3--3-3-5-5-5--5--5-5-|--5----------------|------------------|


                                                                            
------------------|--------3---3-3-3-2--2--2-2-|--0----0--x-x--------------|
------------------|--------3---3-3-3-3--3--3-3-|--1----1--x-x-5--7--8/-12~-|
------------------|----12/-0---0-0-0-2--2--2-2-|--2----2--x-x-x--x--x------|
------------------|--------0---0-0-0-0--0--0-0-|--2----2--x-x-2--4--5/-9~--|
------------------|----10/-x---x-x-x-----------|--0----0--x-x--------------|
------------------|--------3---3-3-3-----------|---------------------------|


                                                         
--------3---3-3-3-2--2--2-2-|--0----0--x-x--------------|
----12/-3---3-3-3-3--3--3-3-|--1----1--x-x--------------|
--------0---0-0-0-2--2--2-2-|--2----2--x-x-5--7--9/-12~-|
----9/--0---0-0-0-0--0--0-0-|--2----2--x-x-x--x--x------|
--------x---x-x-x-----------|--0----0--x-x-3--5--7/-10~-|
--------3---3-3-3-----------|---------------------------|


                                                             
--------3---3-3-3-2--2--2-2-|---|---|---|---|---|---|---|---|
--------3---3-3-3-3--3--3-3-|---|---|---|---|---|---|---|---|
----12/-0---0-0-0-2--2--2-2-|---|---|---|---|---|---|---|---|
--------0---0-0-0-0--0--0-0-|---|---|---|---|---|---|---|---|
----10/-x---x-x-x-----------|---|---|---|---|---|---|---|---|
--------3---3-3-3-----------|---|---|---|---|---|---|---|---|


                                                             
-----------------------------|------------------------------|
-----------------------------|------------------------------|
--------4-------------7------|-----------------------5------|
--5--5--5--5-5-7-7-7--7--7-7-|--7-7-7--7--7-7-5-5-5--5--5-5-|
--5--5--5--5-5-5-5-5--5--5-5-|--7-7-7--7--7-7-3-3-3--3--3-3-|
--3--3--3--3-3-5-5-5--5--5-5-|--5-5-5--5--5-5-3-3-3--3--3-3-|


                                                             
-----------------------------|------------------------------|
-----------------------------|------------------------------|
--------4-------------7------|-----------------------5------|
--5--5--5--5-5-7-7-7--7--7-7-|--7-7-7--7--7-7-5-5-5--5--5-5-|
--5--5--5--5-5-5-5-5--5--5-5-|--7-7-7--7--7-7-3-3-3--3--3-3-|
--3--3--3--3-3-5-5-5--5--5-5-|--5-5-5--5--5-5-3-3-3--3--3-3-|


                     
--7----------------||
--x----------------||
--4----------------||
--5----------------||
--5----------------||
--3----------------||
I want to post or [tab]
guest
You may want to rate the tab now too:
select rating
Please do not post tabs as comments. Select "correction" instead!