Oops, an error
Loading. Please wait.

Prelude In C Sharp Minor Tab

ver1
ver1

Whole song

Interactive

More versions @911Tabs.com
4,368 views 12 this week
no commentswrite comment
1 2 3 4 5
please rate
Autoscroll
+/-
esc
set tempo
stop
Difficulty
advanced
Hey! There's an official Ultimate Guitar app which is ideal
for learning songs when you're away from computer. Get the app
WARNING: You are trying to view
                                    content from Ultimate-Guitar.com
                                    in an unauthorized application,
                                    which is prohibited.

                                    Please use an official Ultimate
                                    Guitar Tabs application for iPhone,
                                    iPad or Android to access legitimate
                                    chords, guitar, bass, and drum tabs
                                    from Ultimate-Guitar.com database.

                                    Type "ultimate guitar tabs" in Apple
                                    App Store's or Android Market's
                                    search to find the application.
#----------------------------------PLEASE NOTE---------------------------------#
#This file is the author's own work and represents their interpretation of the #
#song. You may only use this file for private study, scholarship, or research. #
#------------------------------------------------------------------------------##

            PRELUDE IN C SHARP MINOR (OP. 3 #2) - Arranged for 3 guitars
                       As recorded by Sergei Rachmaninoff

Arranged by john316

Gtr I (E A D G B E) - 'Guitar'
Gtr II (E A D G B E) - 'Guitar 2'
Gtr III (E A D G B E) - 'Guitar 3'

  Q=36
 4/4
  Gtr I
   Q   Q   H       +E    E E  E E  E E  E
|---------------|-------------------------|
|---------------|-------------------------|
|---------------|----------9--------------|
|--7---6--------|------/11---13---12---10-|
|---------------|-------------------------|
|----------9----|--(9)--------------------|
|
| Gtr II
|  Q   Q   H       +E    E E  E E  E E  E
|---------------|-------------------------|
|---------------|-------------------------|
|---------------|----------4--3----5------|
|--7---6--------|--------6-6--5----4----4-|
|---------------|--------7--------------6-|
|----------9----|--(9)--------------------|
|
| Gtr III
|  Q   Q   H       +H           Q    Q
|---------------|-------------------------|
|---------------|-------------------------|
|---------------|-------------------------|
|-14--13--11----|-(11)--------------------|
|-12--11--11----|-(11)----------7----6----|
|----------9----|--(9)----------5----4----|


  E  E E  E E  E E  E   E  E  E  E E E E E
|---------------------|---------------------|
|---------------------|---------------------|
|------9--------------|------13-11---9---8--|
|---11---13---12---10-|---11----------------|
|---------------------|---------------------|
|---------------------|---------------------|
|
| E  E E  E E  E E  E   E  E  E  E E E E E
|---------------------|---------------------|
|---------------------|---------------------|
|------4--3----5------|-------6--6---2---2--|
|----6-6--5----4----4-|----6--9--7---4---4--|
|----7--------------6-|----7----------------|
|---------------------|---------------------|
|
| H         Q    Q      H          Q   Q
|---------------------|---------------------|
|---------------------|---------------------|
|---------------------|---------------------|
|-6-------------------|-6----------5---4----|
|-4---------7----6----|-4----------3---2----|
|-----------5----4----|---------------------|


                       H=H         Q=60
  E E  E  E E E E  E   E E  E  E E E  E E
|--------------------|--------------------|
|-----12-10---9------|---9-10----9--------|
|---9-------------12-|--------11---9-11-8-|
|--------------------|--------------------|
|--------------------|--------------------|
|--------------------|--------------------|
|
| E E  E  E E E E  E   E E  E  E E E  E E
|--------------------|--------------------|
|------5--5----------|--------------------|
|---4--8--6---6----6-|---8--9--6-8-4--6-2-|
|---6---------8----8-|---9-11--7-9-6--7-4-|
|--------------------|--------------------|
|--------------------|--------------------|
|
| H         Q   Q      W
|--------------------|--------------------|
|--------------------|--------------------|
|--------------------|--------------------|
|-2---------9---8----|-6------------------|
|-2---------7---6----|-6------------------|
|-0------------------|-4------------------|


  H.=H                         Q=32
   E  E  E E E  E E  E    E  E E E E E E  E
|----------------------|---------------------|
|----------------------|---------------------|
|--9--9-11-8-9----8----|-------9-8---7-------|
|--------------11---10-|-11-11-----------10--|
|----------------------|---------------------|
|----------------------|---------------------|
|
|  E  E  E E E  E E  E    E  E E E E E E  E
|----------------------|---------------------|
|----------------------|---------------------|
|--4--4--6-2-4---------|-------4-3---5-------|
|--6--6--7-4-6--6-7--4-|--6--6-6-5---4----4--|
|---------------7-9--6-|--7--7------------6--|
|----------------------|---------------------|
|
| +E  E  Q   H            H        Q   Q
|----------------------|---------------------|
|----------------------|---------------------|
|----------------------|---------------------|
|-(6)------------------|---------------------|
|-(6)------------------|-----------7---6-----|
|-(4)------------------|-----------5---4-----|


                  H=H          Q=60
  E  E E  E E E E  E   E  E  E E  E  E E  E
|--------------------|----------------------|
|------9-------------|----------------------|
|--------11---9------|----------------------|
|---11------------10-|---11-12-9-11----9----|
|--------------------|--------------12---11-|
|--------------------|----------------------|
|
| E  E E  E E E E  E   E  E  E E  E  E E  E
|--------------------|----------------------|
|--------------------|----------------------|
|------6--6---5------|----------------------|
|----6-9--7---4----4-|----6--7-4--6--2-4--4-|
|----7-------------6-|----7--9-5--7--4-5--2-|
|--------------------|----------------------|
|
| H         Q   Q      W
|--------------------|----------------------|
|--------------------|----------------------|
|--------------------|----------------------|
|-6------------------|-6--------------------|
|-4---------7---6----|-4--------------------|
|-----------5---4----|----------------------|


         Q=38
   E   E  E E E  E E  E   E E E  E E  E E E
|-----------------------|--------------------|
|-----------------------|--------------------|
|-----------------------|--------------------|
|--------11-9-----------|--------------------|
|-12--12--------12---11-|-----7--------------|
|-----------------------|---9---11---10---7--|
|
|  E   E  E E E  E E  E   E E E  E E  E E E
|-----------------------|--------------------|
|-----------------------|--------------------|
|---------------------5-|--------------------|
|--4---4--4-4---11----4-|--------------------|
|--4---4--7-5----7----6-|-----2--------------|
|-----------------------|---4----6---10---7--|
|
| +E   E  Q   Q    Q      H        Q    Q
|-----------------------|--------------------|
|-----------------------|--------------------|
|-----------------------|--------------------|
|-(6)-------------------|-6------------------|
|-(4)---------5----6----|-4--------7----6----|
|-------------3----4----|----------5----4----|


                      H=H        Q=200
  E E E  E E  E E E   Q      Q      Q     Q       Q      Q      Q     Q
|-------------------|---------------------------|---------------------------|
|-------------------|---------------------------|---------------------------|
|-------------------|---------------------------|---------------------------|
|-------------------|---------------------------|---------------------------|
|-----7-------------|-7-------------------------|-7-------------------------|
|---9---11---10---7-|-------11-----10-----9-----|-------11-----10-----9-----|
|
|                     |-3-|  |-3-|  |-3-| |-3-|   |-3-|  |-3-|  |-3-| |-3-|
| E E E  E E  E E E   E E E  E E E  E E E E E E   E E E  E E E  E E E E E E
|-------------------|---------------------------|---------------------------|
|-------------------|---------------------------|---------------------------|
|-------------------|---------------------------|---------------------------|
|-------------------|--------1------0-----------|-2------1------0-----------|
|-----2-------------|-2---4------4------3-4-----|-----4------4------3-4-----|
|---4----6---10---7-|---4------3------2-----0h4-|---4------3------2-----0h4-|
|
| H        Q    Q     W                           W
|-------------------|---------------------------|---------------------------|
|-------------------|---------------------------|---------------------------|
|-------------------|-6-------------------------|---------------------------|
|-6-----------------|-6-------------------------|---------------------------|
|-4--------7----6---|-4-------------------------|---------------------------|
|----------5----4---|---------------------------|---------------------------|


  Gtr I
   Q     Q     Q      Q
|---------------------------|
|---------------------------|
|---------------------------|
|--------------7------------|
|-11-----9-----------11-----|
|---------------------------|
|
| Gtr II
|  |-3-| |-3-| |-3-|  |-3-|
|  E E E E E E E E E  E E E
|---------------------------|
|---------------------------|
|---------------------------|
|--6-----4-----7------6-----|
|------4-----4-----4------4-|
|----4-----5-----2------4---|


  |-3-|       |-3-|
  Q   E Q     Q   E Q       Q     Q     Q     Q
|-------------------------|-------------------------|
|-------------------------|-------------------------|
|-------------------------|-------------------------|
|-------------------------|-------------------------|
|-9---7-9-----7---6-7-----|-7-----6-----5-----------|
|-------------------------|-------------------9-----|
|
| |-3-| |-3-| |-3-| |-3-|   |-3-| |-3-| |-3-| |-3-|
| E E E E E E E E E E E E   E E E E E E E E E E E E
|-------------------------|-------------------------|
|-------------------------|-------------------------|
|-------------------------|-------------------------|
|-4-----4-----4-----2-----|-2-----1-----0-----------|
|-----4-----4-----3-----4-|-----4-----4-----3-4-----|
|---2-----2-----2-----0---|---4-----3-----2-----0h4-|


  Q     Q     Q     Q       Q     Q     Q     Q       Q     Q     Q     Q
|-------------------------|-------------------------|-------------------------|
|-------------------------|-------------------------|-------------------------|
|-------------------------|-------------------------|-6-----4-----7-----6-----|
|-------------------------|-6-----------7-----6-----|-------------------------|
|-7-----6-----5-----------|-------9-----------------|-------------------------|
|-------------------9-----|-------------------------|-------------------------|
|
| |-3-| |-3-| |-3-| |-3-|   |-3-| |-3-| |-3-| |-3-|   |-3-| |-3-| |-3-| |-3-|
| E E E E E E E E E E E E   E E E E E E E E E E E E   E E E E E E E E E E E E
|-------------------------|-------------------------|-------------------------|
|-------------------------|-------------------------|-------------------------|
|-------------------------|-------------------------|-------4-----7-----6-----|
|-2-----1-----0-----------|-6-----4-----7-----6-----|-6---7-----7-----6-----7-|
|-----4-----4-----3-4-----|-----4-----4-----4-----4-|---4-----5-----5-----4---|
|---4-----3-----2-----0h4-|---4-----5-----2-----4---|-------------------------|


  Q     Q     Q     Q       Q     Q     Q     Q       Q     Q     Q     Q
|-------------------------|-------------------------|-------------------------|
|-6-----------------------|-------------------------|-------------------------|
|-------9-----7-----6-----|-7-----6-----------------|-------------------------|
|-------------------------|-------------9-----7-----|-7-----6-----------------|
|-------------------------|-------------------------|-------------9-----7-----|
|-------------------------|-------------------------|-------------------------|
|
| |-3-| |-3-| |-3-| |-3-|   |-3-| |-3-| |-3-| |-3-|   |-3-| |-3-| |-3-| |-3-|
| E E E E E E E E E E E E   E E E E E E E E E E E E   E E E E E E E E E E E E
|-------------------------|-------------------------|-------------------------|
|-6-----------------------|-3-----2-----0-----------|-------------------------|
|-----8-9---6-7-----6---2-|-----4-----3-------------|-2-----1-----------------|
|---7-----6-------9---4---|---3-----4-------6-7---4-|-----4-----2-4---1-2-----|
|---------------8---------|---------------5-----4---|---3-----4-----0-------4-|
|-------------------------|-------------------------|---------------------4---|


   Q     Q     Q     Q       Q     Q      Q      Q
|--------------------------|---------------------------|
|--------------------------|---------------------------|
|--------------------------|---------------------6-----|
|--------7-----------8-----|-------9-----10------------|
|--------------6-----------|-7-------------------------|
|-10-----------------------|---------------------------|
|
|  |-3-| |-3-| |-3-| |-3-|   |-3-| |-3-|  |-3-|  |-3-|
|  E E E E E E E E E E E E   E E E E E E  E E E  E E E
|--------------------------|---------------------------|
|--------------------------|---------------------------|
|--------2-----------------|---------------------------|
|--0-----------1-----8-----|-------9-----10-----11-----|
|----0h4---0h4-----4-----4-|-7---6-----6------9------7-|
|----------------6-----6---|---7-----7------8------9---|


  Q       Q      Q      Q
|-----------------------------|
|-----------------------------|
|-9-------8------7------6-----|
|-----------------------------|
|-----------------------------|
|-----------------------------|
|
| |--3--| |-3--| |-3--| |-3-|
| E  E  E E E  E E E  E E E E
|-----------------------------|
|-----------------------------|
|-9-------8p0----7------6-----|
|------11-----11-----10-----6-|
|---11-------------9------7---|
|-----------------------------|


  Q       Q      Q      Q       Q     Q      Q       Q
|-----------------------------|------------------------------|
|-----------------------------|-9-----7-----10-------9-------|
|-9-------8------7------6-----|------------------------------|
|-----------------------------|------------------------------|
|-----------------------------|------------------------------|
|-----------------------------|------------------------------|
|
| |--3--| |-3--| |-3--| |-3-|   |-3-| |-3-|  |-3--|  |--3--|
| E  E  E E E  E E E  E E E E   E E E E E E  E E  E  E  E  E
|-----------------------------|------------------------------|
|-----------------------------|-9-----7-----10---------------|
|-9-------8p0----7------6-----|-----6-----6---------13-------|
|------11-----11-----10-----6-|---6-----7--------11-------11-|
|---11-------------9------7---|----------------9-------11----|
|-----------------------------|------------------------------|


   |-3--|         |-3--|
   Q    E  Q      Q    E Q
|-------------------------------|
|--7-------7--------------------|
|-------9---------9----8-9------|
|-------------------------------|
|-------------------------------|
|-------------------------------|
|
|  |-3--|  |-3--| |-3--| |-3--|
|  E E  E  E E  E E E  E E E  E
|-------------------------------|
|-------------------------------|
|-11------11------9------9------|
|------11------11-----10-----11-|
|----9-------9------9------7----|
|-------------------------------|


  Q       Q        Q       Q        Q       Q        Q       Q
|---------------------------------|---------------------------------|
|---------------------------------|---------------------------------|
|-9-------8--------7-------6------|-9-------8--------7-------6------|
|---------------------------------|---------------------------------|
|---------------------------------|---------------------------------|
|---------------------------------|---------------------------------|
|
| |--3--| |--3--|  |-3--|  |-3--|   |--3--| |--3--|  |-3--|  |-3--|
| E  E  E E  E  E  E E  E  E E  E   E  E  E E  E  E  E E  E  E E  E
|---------------------------------|---------------------------------|
|---------------------------------|---------------------------------|
|-9-------8-----------------------|-9-------8-----------------------|
|------11------11-12---10-11------|------11------11-12---10-11------|
|---11------10-------9-------7h11-|---11------10-------9-------7h11-|
|---------------------------------|---------------------------------|


  Q        Q        Q       Q
|-----------------------------------|
|-9--------7-------10-------9-------|
|-----------------------------------|
|-----------------------------------|
|-----------------------------------|
|-----------------------------------|
|
| |--3--|  |--3--|  |-3--|  |--3--|
| E  E  E  E  E  E  E E  E  E  E  E
|-----------------------------------|
|-9----------------10---------------|
|---------11---------------13-------|
|------11-------11------11-------11-|
|---11-------12-------9-------11----|
|-----------------------------------|


  Gtr I
   Q        Q        Q        Q
|--7----------------10--------9-------|
|----------10-------------------------|
|-------------------------------------|
|-------------------------------------|
|-------------------------------------|
|-------------------------------------|
|
| Gtr II
|  |--3--|  |--3--|  |--3--|  |--3--|
|  E  E  E  E  E  E  E  E  E  E  E  E
|-------------------------------------|
|-12-------10-------15----12-14-------|
|-------13-------11----------------14-|
|----12-------11-------15-------16----|
|-------------------------------------|
|-------------------------------------|
|
| Gtr III
|  Q        Q        Q        Q
|-------------------------------------|
|-------------------------------------|
|--------------------4--------6-------|
|--6--------7--------6--------7-------|
|--8--------9-------------------------|
|-------------------------------------|


                     |-3--| |-3--|    |--3--|  |--3--|  |--3--| |-3--|
   Q        Q        E E  E E  E E    E  E  E  E  E  E  E  E  E E  E E
|-14-------12-------17---17---16---|-14----14----12--------------------|
|----------------------------------|-------------------15----15---14---|
|----------------------------------|-----------------------------------|
|----------------------------------|-----------------------------------|
|----------------------------------|-----------------------------------|
|----------------------------------|-----------------------------------|
|
|  |--3--|  |--3--|  |-3--| |-3--|    |--3--|  |--3--|  |--3--| |-3--|
|  E  E  E  E  E  E  E E  E E  E E    E  E  E  E  E  E  E  E  E E  E E
|-14-------12----------------------|-----------------------------------|
|-------16-------14-13---13---14---|-----------------------------------|
|----14-------13-------------------|-14----14----13---------------11---|
|----------------------------------|-------------------15----15--------|
|----------------------------------|-----------------------------------|
|----------------------------------|-----------------------------------|
|
|                    |-3--| |-3--|    |--3--|  |--3--|  |--3--| |-3--|
|  Q        Q        E E  E E  E E    E  E  E  E  E  E  E  E  E E  E E
|----------------------------------|-----------------------------------|
|----------------------7----9----9-|-----------------------------------|
|--8--------9----------7----9----9-|-----8-----9-----9----------6----6-|
|-10-------11----------------------|----10----11----11-----9----7----7-|
|----------------------------------|----------------------11-----------|
|----------------------------------|-----------------------------------|


   |-3--| |-3--|  |-3--| |-3--|
   E E  E E  E E  E E  E E  E E
|-------------------------------|
|-12---12-----------------------|
|-----------14---14---14---13---|
|-------------------------------|
|-------------------------------|
|-------------------------------|
|
|  |-3--| |-3--|  |-3--| |-3--|
|  E E  E E  E E  E E  E E  E E
|-------------------------------|
|-------------------------------|
|-------------------------------|
|-12---12---11---10---10---11---|
|-------------------------------|
|-------------------------------|
|
|  |-3--| |-3--|  |-3--| |-3--|
|  E E  E E  E E  E E  E E  E E
|-------------------------------|
|-------------------------------|
|-------------------------------|
|----6----7----7----4----6----6-|
|----8----9----9----6----8----8-|
|-------------------------------|


   |-3--| |-3--|  |-3--| |-3--|    |-3--| |-3--|  |-3--| |-3--|
   E E  E E  E E  E E  E E  E E    E E  E E  E E  E E  E E  E E
|-------------------------------|-------------------------------|
|-------------------------------|-------------------------------|
|-11---11-----------------------|-------------------------------|
|-----------14---12---12---11---|--9----9-----------------------|
|-------------------------------|-----------12---12---12---11---|
|-------------------------------|-------------------------------|
|
|  |-3--| |-3--|  |-3--| |-3--|    |-3--| |-3--|  |-3--| |-3--|
|  E E  E E  E E  E E  E E  E E    E E  E E  E E  E E  E E  E E
|-------------------------------|-------------------------------|
|-------------------------------|-------------------------------|
|-------------------------------|-------------------------------|
|-------------------------------|-------------------------------|
|-12---12---11--------------9---|-------------------------------|
|----------------13---13--------|-10---10----9----8----8----9---|
|
|  |-3--| |-3--|  |-3--| |-3--|    |-3--| |-3--|  |-3--| |-3--|
|  E E  E E  E E  E E  E E  E E    E E  E E  E E  E E  E E  E E
|-------------------------------|-------------------------------|
|-------------------------------|-------------------------------|
|-------------------------------|-------------------------------|
|-------------------------------|-------------------------------|
|----6----7----7----2----4----4-|---------0----0----------------|
|----8----9----9----4----5----5-|----4----2----2----2----4----4-|


                             H.=H                                          Q=185
  |-3-| |-3-| |-3-| |-3--|   |-3-| |-3-| |-3-| |-3-|   |-3-| |-3-| |-3-| |-3-|
  E E E E E E E E E E  E E   E E E E E E E E E E E E   E E E E E E E E E E E E
|--------------------------|-------------------------|-------------------------|
|--------------------------|-------------------------|-------------------------|
|--------------------------|-------------------------|-------------------------|
|-------------7---7--------|-------------------------|-------------------------|
|-9---9---7-----------11---|-9---9---7---9---9---7---|-9---9---7---9---9---7---|
|--------------------------|-------------------------|-------------------------|
|
| |-3-| |-3-| |-3-| |-3--|   |-3-| |-3-| |-3-| |-3-|   |-3-| |-3-| |-3-| |-3-|
| E E E E E E E E E E  E E   E E E E E E E E E E E E   E E E E E E E E E E E E
|--------------------------|-------------------------|-------------------------|
|--------------------------|-------------------------|-------------------------|
|--------------------------|-------------------------|-------------------------|
|--------------------------|-------------------------|-------------------------|
|-0---0-------3---3----4---|-------------------------|-------------------------|
|---------4----------------|-5---5---4---5---5---4---|-5---5---4---5---5---4---|
|
| |-3-| |-3-| |-3-| |-3--|   |-3-| |-3-| |-3-| |-3-|   |-3-| |-3-| |-3-| |-3-|
| E E E E E E E E E E  E E   E E E E E E E E E E E E   E E E E E E E E E E E E
|--------------------------|-------------------------|-------------------------|
|--------------------------|-------------------------|-------------------------|
|--------------------------|-------------------------|-------------------------|
|---1---2---2---4---6----6-|---1---2---2---1---2---2-|---1---2---2---1---2---2-|
|---3---4---4---6---7----7-|---3---4---4---3---4---4-|---3---4---4---3---4---4-|
|--------------------------|-------------------------|-------------------------|


  Q=110H.=H                   Q=38
  H     H      H     H      E  E  E  E E  E E  E   E  E  E  E E  E E  E
|------------|------------|----------------------|-----------------------|
|------------|------------|---14-17-16---15------|---14-17-16---15-------|
|------11----|------13----|-------------------17-|-------------------17--|
|------11----|------10----|----------------------|-----------------------|
|-------9----|------11----|----------------------|-----------------------|
|------------|------------|----------------------|-----------------------|
|
| H     H      H     H      E  E  E  E E  E E  E   E  E  E  E E  E E  E
|------------|------------|----------------------|-----------------------|
|------------|------------|----9-12-11---13------|----9-12-11---13-------|
|-------6----|------------|----9-13-12---11---11-|----9-13-12---11---11--|
|-------4----|-------1----|-------------------13-|-------------------13--|
|-------4----|-------3----|----------------------|-----------------------|
|------------|-------2----|----------------------|-----------------------|
|
| W            W            H          Q    Q      H          Q    Q
|------------|------------|----------------------|-----------------------|
|------------|------------|----------------------|-----------------------|
|------------|------------|-6--------------------|-6---------------------|
|-7----------|-6----------|-6--------------------|-6---------------------|
|-7----------|-6----------|-4----------7----6----|-4----------7----6-----|
|-5----------|-4----------|------------5----4----|------------5----4-----|


                                         H=H
  E  E  E  E E  E E  E   E  E  E  E E  E E  E
|------16-14-----------|------19-17---16---15-|
|---14---------17---16-|---17-----------------|
|----------------------|----------------------|
|----------------------|----------------------|
|----------------------|----------------------|
|----------------------|----------------------|
|
| E  E  E  E E  E E  E   E  E  E  E E  E E  E
|----------------------|------12-12-----------|
|------14-14---10---10-|---12-16-14---14---14-|
|---13-16-14---11---11-|---13---------15---15-|
|---14-----------------|----------------------|
|----------------------|----------------------|
|----------------------|----------------------|
|
| H          Q    Q      H          Q    Q
|----------------------|----------------------|
|----------------------|----------------------|
|----------------------|----------------------|
|-6----------5----4----|-2----------9----8----|
|-4----------3----2----|-2----------7----6----|
|----------------------|-0--------------------|


                           Q=50      H.=H
  E  E  E  E  E  E  E  E    E   E  E  E  E  E  E  E
|---16-17-14-16----14----|--------14-----------------|
|---------------17----16-|-17--17----16-17-14-16-----|
|------------------------|-----------------------17--|
|------------------------|---------------------------|
|------------------------|---------------------------|
|------------------------|---------------------------|
|
| E  E  E  E  E  E  E  E    E   E  E  E  E  E  E  E
|------------------------|---------------------------|
|---16-17-14-16-12-14-10-|-12--12-14-10-12--9-10--7--|
|---16-18-14-16-13-14-11-|-13--13-14-11-13--9-11--8--|
|------------------------|---------------------------|
|------------------------|---------------------------|
|------------------------|---------------------------|
|
| W                        +E   E  Q     H
|------------------------|---------------------------|
|------------------------|---------------------------|
|------------------------|---------------------------|
|-6----------------------|-(6)-----------------------|
|-6----------------------|-(6)-----------------------|
|-4----------------------|-(4)-----------------------|


  Q=33
   E  E  E  E E  E E  E   E  E  E  E E  E E  E
|-----------------------|------16-14-----------|
|-14-14-17-16---15------|---14---------17------|
|--------------------17-|-------------------17-|
|-----------------------|----------------------|
|-----------------------|----------------------|
|-----------------------|----------------------|
|
|  E  E  E  E E  E E  E   E  E  E  E E  E E  E
|-----------------------|-------9--9-----------|
|--9--9-12-11---13----7-|----9-12-10---13----7-|
|--9--9-13-12---11----8-|----9---------11----8-|
|-----------------------|----------------------|
|-----------------------|----------------------|
|-----------------------|----------------------|
|
|  H          Q    Q      H          Q    Q
|-----------------------|----------------------|
|-----------------------|----------------------|
|-----------------------|----------------------|
|--6--------------------|-6--------------------|
|--4----------7----6----|-4----------7----6----|
|-------------5----4----|------------5----4----|


  H=H                Q=55             Q=40    H.=H
   E  E  E  E  E   E  E  E    E  E  E  E E  E E  E
|--------------------------|------------------------|
|-14-----------------------|------------------------|
|--------------------------|------------------------|
|-------12-----------------|-------11---------------|
|----16----14-16--12-14-11-|-12-12----14---12---11--|
|--------------------------|------------------------|
|
|  E  E  E  E  E   E  E  E    E  E  E  E E  E E  E
|--------------------------|------------------------|
|--9-----------------------|------------------------|
|--9-----------------------|------------------------|
|-----6--7--4--6---2--4--4-|--4--4--4--4---------4--|
|-----7--9--5--7---4--5--2-|--4--4--7--5----7----6--|
|--------------------------|------------------------|
|
|  H          +E   E  Q       H          Q    Q
|--------------------------|------------------------|
|--------------------------|------------------------|
|--------------------------|------------------------|
|--6----------(6)----------|------------------------|
|--4----------(4)----------|-------------5----6-----|
|--------------------------|-------------3----4-----|


  Q  H.        Q  H.        Q  H.        Q  H.
|------------|------------|------------|------------|
|------------|------------|------------|------------|
|----6-------|----6-------|----6-------|----6-------|
|------------|------------|------------|------------|
|------------|------------|------------|------------|
|------------|------------|------------|------------|
|
| Q  H.        Q  H.        Q  H.        Q  H.
|------------|------------|------------|------------|
|------------|------------|------------|------------|
|------------|------------|------------|----3-------|
|----7-------|----6-------|----7-------|----4-------|
|----4-------|----4-------|----4-------|----4-------|
|------------|------------|------------|------------|
|
| W            W            W            W
|------------|------------|------------|------------|
|------------|------------|------------|------------|
|-6----------|-6----------|-6----------|-6----------|
|-6----------|-6----------|-6----------|-6----------|
|-4----------|-4----------|-4----------|-4----------|
|------------|------------|------------|------------|


                              \2/
  Q  H.        H    Q.   E   +H..       +E
|------------|-------------|-----------------*|
|------------|-----------9-|-(9)--------(9)\-*|
|----6-------|------6------|-----------------*|
|------------|-------------|-----------------*|
|------------|-------------|-----------------*|
|------------|-------------|-----------------*|
|
| Q  H.        H    Q.   E    W
|------------|-------------|-----------------*|
|------------|-------------|-----------------*|
|----2-------|------1----6-|--6--------------*|
|----4-------|------2----6-|--6--------------*|
|----4-------|------4------|-----------------*|
|------------|-------------|-----------------*|
|
| W            W             +W
|------------|-------------|-----------------*|
|------------|-------------|-----------------*|
|-6----------|-6-----------|-(6)-------------*|
|-6----------|-6-----------|-(6)-------------*|
|-4----------|-4-----------|-(4)-------------*|
|------------|-------------|-----------------*|


Duration Legend
---------------
W - whole; H - half; Q - quarter; E - 8th; S - 16th; T - 32nd; X - 64th; a - acciaccatura
+ - note tied to previous; . - note dotted; .. - note double dotted
Uncapitalized letters represent notes that are staccato (1/2 duration)
Irregular groupings are notated above the duration line
Duration letters will always appear directly above the note/fret number it represents the
duration for.  Duration letters with no fret number below them represent rests.  Multi-
bar rests are notated in the form Wxn, where n is the number of bars to rest for.  Low
melody durations appear below the staff

Tablature Legend
----------------
 h   - hammer-on
 p   - pull-off
 b   - bend
 pb  - pre-bend
 r   - bend release (if no number after the r, then release immediately)
 /\  - slide into or out of (from/to "nowhere")
 s   - legato slide
 S   - shift slide
<n>  - natural harmonic
[n]  - artificial harmonic
n(n) - tapped harmonic
 ~   - vibrato
 tr  - trill
 T   - tap
 TP  - trem. picking
 PM  - palm muting
\n/  - tremolo bar dip; n = amount to dip
 \n  - tremolo bar down
 n/  - tremolo bar up
/n\  - tremolo bar inverted dip
 =   - hold bend; also acts as connecting device for hammers/pulls
 <>  - volume swell (louder/softer)
 x   - on rhythm slash represents muted slash
 o   - on rhythm slash represents single note slash

Misc Legend
-----------
 |  - bar
||  - double bar
||o - repeat start
o|| - repeat end
*|  - double bar (ending)
 :  - bar (freetime)
 $  - Segno
 &  - Coda
Tempo markers - <E/E./Q/Q./H/H.> = BPM(8/16=s8/s16), where s8 = swing 8ths, s16 = swing 16ths
comments
We did not receive enough feedback on this tab! Please rate:
print report bad tab
1 2 3 4 5
I want to post or [tab]
guest
You may want to rate the tab now too:
select rating
Please do not post tabs as comments. Select "correction" instead!