Oops, an error
Loading. Please wait.

Baby Tab

ver1
ver1

Intro

Whole song

Interactive

More versions @911Tabs.com
45,041 views 63 this week
7 commentsread comments
1 2 3 4 5
excellent!
x 20
Autoscroll
+/-
esc
set tempo
stop
Contributor
Difficulty
Hey! There's an official Ultimate Guitar app which is ideal
for learning songs when you're away from computer. Get the app
WARNING: You are trying to view
                                    content from Ultimate-Guitar.com
                                    in an unauthorized application,
                                    which is prohibited.

                                    Please use an official Ultimate
                                    Guitar Tabs application for iPhone,
                                    iPad or Android to access legitimate
                                    chords, guitar, bass, and drum tabs
                                    from Ultimate-Guitar.com database.

                                    Type "ultimate guitar tabs" in Apple
                                    App Store's or Android Market's
                                    search to find the application.
Guitar 1 (EADGBE) 6 String-Acoustic
Guitar 2 (EADGBE) Clean Electric (Reverb)
Guitar 3 (EADGBE) Distortion Electric

This should give you a pretty specific idea of how to play this song, one of my 
off Elect The Dead.

  INTRO

  Guitar 1
e|------------------------------------------------------------------|
B|-----0----------------0-----------0---------------0---------------|
G|-------0--------0-------0-----------0-------0-------0-------------|
D|--------------2---------------2-----------2---------------2-------|
A|------------2-------------2-------------2-------------2-----------|
E|-0----------------0-------------0-------------0-------------------|
 |
 |Guitar 2
e|-----------------------------7v---------------8v------------------|
B|------------------------------------------------------------------|
G|------------------------------------------------------------------|
D|------------------------------------------------------------------|
A|------------------------------------------------------------------|
E|------------------------------------------------------------------|


e|--------------------------------------------------2--2-2-2--------|
B|-----5---------------5-----------4----------------4--4-4-4--------|
G|-------5-------5-------5-----------4-----4--------4--4-4-4--------|
D|-------------5---------------5---------4----------4--4-4-4--------|
A|-3---------3-----3-------3-----2-----2------------2--2-2-2--------|
E|--------------------------------------------2---2-----------------|
 |
 |
e|-------------------------------16v----------7v--------------------|
B|------------------------------------------------------------------|
G|------------------------------------------------------------------|
D|------------------------------------------------------------------|
A|------------------------------------------------------------------|
E|------------------------------------------------------------------|


  VERSE 1

  Guitar 1
e|------------------------------------------------------------------|
B|-----0----------------0-----------0---------------0---------------|
G|-------0--------0-------0-----------0-------0-------0-------------|
D|--------------2---------------2-----------2---------------2-------|
A|------------2-------------2-------------2-------------2-----------|
E|-0----------------0-------------0-------------0-------------------|
 |
 |Guitar 2
e|------------------------------------------------------------------|
B|-------------------------------------------------------7v---------|
G|----------------------------------------------------/9v-----------|
D|------------------------------------------------------------------|
A|------------------------------------------------------------------|
E|------------------------------------------------------------------|


e|--------------------------------------------------2--2-2-2--------|
B|-----5---------------5-----------4----------------4--4-4-4--------|
G|-------5-------5-------5-----------4-----4--------4--4-4-4--------|
D|-------------5---------------5---------4----------4--4-4-4--------|
A|-3---------3-----3-------3-----2-----2------------2--2-2-2--------|
E|--------------------------------------------2---2-----------------|
 |
 |
e|-------------------------------12h----------7v--------------------|
B|-----8v-----------------------------------------------------------|
G|------------------------------------------------------------------|
D|------------------------------------------------------------------|
A|------------------------------------------------------------------|
E|------------------------------------------------------------------|


e|------------------------------------------------------------------|
B|-----0----------------0-----------0---------------0---------------|
G|-------0--------0-------0-----------0-------0-------0-------------|
D|--------------2---------------2-----------2---------------2-------|
A|------------2-------------2-------------2-------------2-----------|
E|-0----------------0-------------0-------------0-------------------|
 |
 |
e|-5v---------------------------------------------------------------|
B|------------------------------------------------------------------|
G|-----------------------------------------------------9-9-11-------|
D|--------------------------------------------------9---------------|
A|------------------------------------------------------------------|
E|------------------------------------------------------------------|

                                                        End Guitar 1
e|--------------------------------------------------2---------------|
B|-----5---------------5-----------4----------------4---------------|
G|-------5-------5-------5-----------4-----4--------4---------------|
D|-------------5---------------5---------4----------4---------------|
A|-3---------3-----3-------3-----2-----2------------2---------------|
E|--------------------------------------------2---2-----------------|
 |
 |                                                      End Guitar 2
e|------------------------------------------------------------------|
B|------------------------------------------------------------------|
G|-12v--------------------------------------------------------------|
D|---------------------------------------------10p9-9v--------------|
A|------------------------------------------------------------------|
E|------------------------------------------------------------------|

  CHORUS 1

  Guitar 3
e|------------------------------------------------------------------|
B|------------------------------------------------------------------|
G|------------------4-4-4-4--4-4-4----------------------------------|
D|-2-2-2-2--2-2-2---4-4-4-4--4-4-4----------------------------------|
A|-2-2-2-2--2-2-2---2-2-2-2--2-2-2----------------------------------|
E|-0-0-0-0--0-0-0------------------x2-------------------------------|

e|----------------------------------------------------------------------|
B|----------------------------------------------------------------------|
G|-5-5-5-5--5-5-5---7-7-7-7--7-7-7--4-4-4-4--4-4-4----------------------|
D|-5-5-5-5--5-5-5---7-7-7-7--7-7-7--4-4-4-4--4-4-4-9--9-9\7-7\5-5-4-4-2-|
A|-3-3-3-3--3-3-3---5-5-5-5--5-5-5--2-2-2-2--2-2-2-9--9-9\7-7\5-5-4-4-2-|
E|-------------------------------------------------7--7-7\5-5\3-3\2-2-0-|

e|------------------------------------------------------------------|
B|------------------------------------------------------------------|
G|------------------4-4-4-4--4-4-4----------------------------------|
D|-2-2-2-2--2-2-2---4-4-4-4--4-4-4----------------------------------|
A|-2-2-2-2--2-2-2---2-2-2-2--2-2-2----------------------------------|
E|-0-0-0-0--0-0-0------------------x2-------------------------------|
                                                        End Guitar 3
e|------------------------------------------------------------------|
B|------------------------------------------------------------------|
G|-5-5-5-5--5-5-5---7-7-7-7--7-7-7--4-4-4-4--4-4-4--4---------------|
D|-5-5-5-5--5-5-5---7-7-7-7--7-7-7--4-4-4-4--4-4-4--4---------------|
A|-3-3-3-3--3-3-3---5-5-5-5--5-5-5--2-2-2-2--2-2-2--2---------------|
E|------------------------------------------------------------------|

  VERSE 2

  Guitar 1
e|------------------------------------------------------------------|
B|-----0----------------0-----------0---------------0---------------|
G|-------0--------0-------0-----------0-------0-------0-------------|
D|--------------2---------------2-----------2---------------2-------|
A|------------2-------------2-------------2-------------2-----------|
E|-0----------------0-------------0-------------0-------------------|

e|--------------------------------------------------2--2-2-2--------|
B|-----5---------------5-----------4----------------4--4-4-4--------|
G|-------5-------5-------5-----------4-----4--------4--4-4-4--------|
D|-------------5---------------5---------4----------4--4-4-4--------|
A|-3---------3-----3-------3-----2-----2------------2--2-2-2--------|
E|--------------------------------------------2---2-----------------|

e|------------------------------------------------------------------|
B|-----0----------------0-----------0---------------0---------------|
G|-------0--------0-------0-----------0-------0-------0-------------|
D|--------------2---------------2-----------2---------------2-------|
A|------------2-------------2-------------2-------------2-----------|
E|-0----------------0-------------0-------------0-------------------|
                                                        End Guitar 1
e|--------------------------------------------------2--2-2-2--------|
B|-----5---------------5-----------4----------------4--4-4-4--------|
G|-------5-------5-------5-----------4-----4--------4--4-4-4--------|
D|-------------5---------------5---------4----------4--4-4-4--------|
A|-3---------3-----3-------3-----2-----2------------2--2-2-2--------|
E|--------------------------------------------2---2-----------------|

  CHORUS 2

  Guitar 3
e|------------------------------------------------------------------|
B|------------------------------------------------------------------|
G|------------------4-4-4-4--4-4-4----------------------------------|
D|-2-2-2-2--2-2-2---4-4-4-4--4-4-4----------------------------------|
A|-2-2-2-2--2-2-2---2-2-2-2--2-2-2----------------------------------|
E|-0-0-0-0--0-0-0------------------x2-------------------------------|

e|------------------------------------------------------------------|
B|------------------------------------------------------------------|
G|-5-5-5-5--5-5-5---7-7-7-7--7-7-7--4-4-4-4--4-4-4------------------|
D|-5-5-5-5--5-5-5---7-7-7-7--7-7-7--4-4-4-4--4-4-4-9\7-7\5-5\4-4-2--|
A|-3-3-3-3--3-3-3---5-5-5-5--5-5-5--2-2-2-2--2-2-2-9\7-7\5-5\4-4-2--|
E|-------------------------------------------------7\5-5\3-3\2-2-0--|

e|------------------------------------------------------------------|
B|------------------------------------------------------------------|
G|------------------4-4-4-4--4-4-4----------------------------------|
D|-2-2-2-2--2-2-2---4-4-4-4--4-4-4----------------------------------|
A|-2-2-2-2--2-2-2---2-2-2-2--2-2-2----------------------------------|
E|-0-0-0-0--0-0-0------------------x2-------------------------------|

e|------------------------------------------------------------------|
B|------------------------------------------------------------------|
G|-5-5-5-5--5-5-5---7-7-7-7--7-7-7--4-4-4-4--4-4-4------------------|
D|-5-5-5-5--5-5-5---7-7-7-7--7-7-7--4-4-4-4--4-4-4--9\7-7\5-5\4-4-2-|
A|-3-3-3-3--3-3-3---5-5-5-5--5-5-5--2-2-2-2--2-2-2--9\7-7\5-5\4-4-2-|
E|--------------------------------------------------7\5-5\3-3\2-2-0-|

  BRIDGE

  Guitar 3
e|------------------------------------------------------------------|
B|------------------------------------------------------------------|
G|------------------------------------------------------------------|
D|-2--2-2-2-4-5--2--2-2-/7-9-7--------------------------------------|
A|-2--2-2-2-4-5--2--2-2-/7-9-7--------------------------------------|
E|-0--0-0-0-2-3--0--0-0-/5-7-5-x2-----------------------------------|

e|------------------------------------------------------------------|
B|------------------------------------------------------------------|
G|-5-5-5-5-5-5-5-5-5-5-5-5-5-5-5-5-4-4-4-4-4-4-4-4-4-4-4-4-4-4-4-4--|
D|-5-5-5-5-5-5-5-5-5-5-5-5-5-5-5-5-4-4-4-4-4-4-4-4-4-4-4-4-4-4-4-4--|
A|-3-3-3-3-3-3-3-3-3-3-3-3-3-3-3-3-2-2-2-2-2-2-2-2-2-2-2-2-2-2-2-2--|
E|------------------------------------------------------------------|

e|------------------------------------------------------------------|
B|------------------------------------------------------------------|
G|------------------------------------------------------------------|
D|-2--2-2-2-4-5--2--2-2-/7-9-7--------------------------------------|
A|-2--2-2-2-4-5--2--2-2-/7-9-7--------------------------------------|
E|-0--0-0-0-2-3--0--0-0-/5-7-5-x2-----------------------------------|

e|------------------------------------------------------------------|
B|------------------------------------------------------------------|
G|-5-5-5-5-5-5-5-5-5-5-5-5-5-5-5-5-4-4-4-4-4-4-4-4-4-4-4-4-4-4-4-4--|
D|-5-5-5-5-5-5-5-5-5-5-5-5-5-5-5-5-4-4-4-4-4-4-4-4-4-4-4-4-4-4-4-4--|
A|-3-3-3-3-3-3-3-3-3-3-3-3-3-3-3-3-2-2-2-2-2-2-2-2-2-2-2-2-2-2-2-2--|
E|------------------------------------------------------------------|

e|------------------------------------------------------------------|
B|------------------------------------------------------------------|
G|------------------------------------------------------------------|
D|-2--2-2-2-4-5--2--2-2-/7-9-7--2--2-2-2-4-5----7-9---7-9-----------|
A|-2--2-2-2-4-5--2--2-2-/7-9-7--2--2-2-2-4-5----7-9---7-9-----------|
E|-0--0-0-0-2-3--0--0-0-/5-7-5--0--0-0-0-2-3--0-5-7-0-5-7-----------|

e|------------------------------------------------------------------|
B|------------------------------------------------------------------|
G|-5-5-5-5-5-5-5-5-5-5-5-5-5-5-5-5-4-4-4-4-4-4-4-4-4-4-4-4-4-4-4-4--|
D|-5-5-5-5-5-5-5-5-5-5-5-5-5-5-5-5-4-4-4-4-4-4-4-4-4-4-4-4-4-4-4-4--|
A|-3-3-3-3-3-3-3-3-3-3-3-3-3-3-3-3-2-2-2-2-2-2-2-2-2-2-2-2-2-2-2-2--|
E|------------------------------------------------------------------|

e|-----------------|
B|-----------------|
G|-----------------|
D|-9\7-7\5-5\4-4-2-|
A|-9\7-7\5-5\4-4-2-|
E|-7\5-5\3-3\2-2-0-|

e|------------------------------------------------------------------|
B|------------------------------------------------------------------|
G|------------------------------------------------------------------|
D|-2--2-2-2-4-5--2--2-2-/7-9-7--2--2-2-2-4-5----7-9---7-9-----------|
A|-2--2-2-2-4-5--2--2-2-/7-9-7--2--2-2-2-4-5----7-9---7-9-----------|
E|-0--0-0-0-2-3--0--0-0-/5-7-5--0--0-0-0-2-3--0-5-7-0-5-7-----------|

e|------------------------------------------------------------------|
B|------------------------------------------------------------------|
G|-5-5-5-5-5-5-5-5-5-5-5-5-5-5-5-5-4-4-4-4-4-4-4-4-4-4-4-4-4-4-4-4--|
D|-5-5-5-5-5-5-5-5-5-5-5-5-5-5-5-5-4-4-4-4-4-4-4-4-4-4-4-4-4-4-4-4--|
A|-3-3-3-3-3-3-3-3-3-3-3-3-3-3-3-3-2-2-2-2-2-2-2-2-2-2-2-2-2-2-2-2--|
E|------------------------------------------------------------------|


e|------------------------------------------------------------------|
B|------------------------------------------------------------------|
G|------------------------------------------------------------------|
D|-9-9-9-9-9-9-9-9-9\7-7\5-4\4-4-2----------------------------------|
A|-9-9-9-9-9-9-9-9-9\7-7\5-5\4-4-2----------------------------------|
E|-7-7-7-7-7-7-7-7-7\5-5\3-3\2-2-0----------------------------------|

  CHORUS 3

  Guitar 3
e|------------------------------------------------------------------|
B|------------------------------------------------------------------|
G|------------------4-4-4-4--4-4-4----------------------------------|
D|-2-2-2-2--2-2-2---4-4-4-4--4-4-4----------------------------------|
A|-2-2-2-2--2-2-2---2-2-2-2--2-2-2----------------------------------|
E|-0-0-0-0--0-0-0------------------x2-------------------------------|

e|------------------------------------------------------------------|
B|------------------------------------------------------------------|
G|-5-5-5-5--5-5-5---7-7-7-7--7-7-7--4-4-4-4--4-4-4------------------|
D|-5-5-5-5--5-5-5---7-7-7-7--7-7-7--4-4-4-4--4-4-4-9\7-7\5-5\4-4-2--|
A|-3-3-3-3--3-3-3---5-5-5-5--5-5-5--2-2-2-2--2-2-2-9\7-7\5-5\4-4-2--|
E|-------------------------------------------------7\5-5\3-3\2-2-0--|

e|------------------------------------------------------------------|
B|------------------------------------------------------------------|
G|------------------4-4-4-4--4-4-4----------------------------------|
D|-2-2-2-2--2-2-2---4-4-4-4--4-4-4----------------------------------|
A|-2-2-2-2--2-2-2---2-2-2-2--2-2-2----------------------------------|
E|-0-0-0-0--0-0-0------------------x2-------------------------------|

e|------------------------------------------------------------------|
B|------------------------------------------------------------------|
G|-5-5-5-5--5-5-5---7-7-7-7--7-7-7--4-4-4-4--4-4-4--4-4-4-4--4-4-4--|
D|-5-5-5-5--5-5-5---7-7-7-7--7-7-7--4-4-4-4--4-4-4--4-4-4-4--4-4-4--|
A|-3-3-3-3--3-3-3---5-5-5-5--5-5-5--2-2-2-2--2-2-2--2-2-2-2--2-2-2--|
E|------------------------------------------------------------------|

e|------------------------------------------------------------------|
B|------------------------------------------------------------------|
G|-4-4-4-4--4-4-4-4-------------------------------------------------|
D|-4-4-4-4--4-4-4-4-let ring> Feeeeeeedddbbbaccckkkkkkk-------------|
A|-2-2-2-2--2-2-2-2-------------------------------------------------|
E|------------------------------------------------------------------|

  ENDING

  Guitar 1
e|------------------------------------------------------------------|
B|-----0----------------0-----------0---------------0---------------|
G|-------0--------0-------0-----------0-------0-------0-------------|
D|--------------2---------------2-----------2-----------2-2-0-------|
A|------------2-------------2-------------2-------------------------|
E|-0----------------0-------------0-------------0-------------------|
 |
 |Guitar 3
e|------------------------------------------------------------------|
B|------------------------------------------------------------------|
G|------------------------------------------------------------------|
D|-Continuous Feedback Throughout...--------------------------------|
A|------------------------------------------------------------------|
E|------------------------------------------------------------------|
                                                    v--Play Here Slowly
e|--------------------------------------------------2---------------|
B|-----5---------------5-----------4-0--------------4---------------|
G|-------5-------5-------5----------------4---------4---------------|
D|-------------5---------------5---------4--------4-----------------|
A|-3---------3-----3-------3-----2-----2--------2-------------------|
E|--------------------------------------------2---------------------|
 |
 |
e|------------------------------------------------------------------|
B|------------------------------------------------------------------|
G|------------------------------------------------------------------|
D|-------------------------------*dive bomb the feedback------------|
A|--------------------------------up then down more here*-----------|
E|------------------------------------------------------------------|

Enjoy :)
comments
print report bad tab
7 comments total. Showing first comments.
+2 reply
valdemar28491 wrote on October 26 2007, 09:42 pm

Very nice!!

+4 reply
h3RR_wURST wrote on October 28 2007, 04:27 am

yeah sounds really good =D does serj really play standard tuned guitar? would be nice to know ;)

+1 reply
PaperEye wrote on October 29 2007, 10:42 am

Drop C fits to most of the songs, but there's often an acoustic gutar with standard tuning (just like Question). Nice tab by the way, but the distorted part has to be Drop C because it gets lower.

I want to post or [tab]
guest
You may want to rate the tab now too:
select rating
Please do not post tabs as comments. Select "correction" instead!