Oops, an error
Loading. Please wait.

Blue Tab

ver2
ver2

Whole song

More versions @911Tabs.com
5,761 views 3 this week
no commentswrite comment
1 2 3 4 5
excellent!
x 4
Autoscroll
+/-
esc
set tempo
stop
Contributor
Tuning
D A D G B E
WARNING: You are trying to view
                                    content from Ultimate-Guitar.com
                                    in an unauthorized application,
                                    which is prohibited.

                                    Please use an official Ultimate
                                    Guitar Tabs application for iPhone,
                                    iPad or Android to access legitimate
                                    chords, guitar, bass, and drum tabs
                                    from Ultimate-Guitar.com database.

                                    Type "ultimate guitar tabs" in Apple
                                    App Store's or Android Market's
                                    search to find the application.
Artist: Serj Tankian
Song title: Blue
Album: Elect the Dead
 

Intro


E|--------------------|--------------------|--------------------|--------------------|
B|--------------------|--------------------|--------------------|--------------------|
G|--------------------|--------------------|--------------------|--------------------|
D|--------------------|--------------------|--------------------|--------------------|
A|--------------------|--------------------|--------------------|--------------------|
D|--0--4--4--4--4--4--|--4--1--1--1--1--1--|--0--4--4--4--4--4--|--4--1--1--1--1--1--|



E|--------------------|--------------------|--------------------|--------------------|
B|--------------------|--------------------|--------------------|--------------------|
G|--------------------|--------------------|--------------------|--------------------|
D|--------------------|--------------------|--------------------|--------------------|
A|--------------------|--------------------|--------------------|--------------------|
D|--0--4--4--4--4--4--|--4--1--1--1--1--1--|--0--4--4--4--4--4--|--4--1--1--1--1--1--|



E|--------------------|--------------------|--------------------|--------------------|
B|--------------------|--------------------|--------------------|--------------------|
G|-----------5--------|-----------5--------|-----------5--------|-----------5--------|
D|--------4-----4-----|--------4-----4-----|--------4-----4-----|--------4-----4-----|
A|-----5-----------5--|-----5-----------5--|-----5-----------5--|-----5-----------5--|
D|--0-----------------|--0-----------------|--0-----------------|--0-----------------|



E|--------------------|--------------------|--------------------|--------------------|
B|--------------------|--------------------|--------------------|--------------------|
G|-----------3--------|-----------3--------|-----------3--------|-----------3--------|
D|--------2-----2-----|--------2-----2-----|--------2-----2-----|--------2-----2-----|
A|-----3-----------3--|-----3-----------3--|-----3-----------3--|-----3-----------3--|
D|--0-----------------|--0-----------------|--0-----------------|--0-----------------|



Verse  (I'm    wishing and wishing away ... )


E|--------------------|--------------------|--------------------|--------------------|
B|--------------------|--------------------|--------------------|--------------------|
G|-----------5--------|-----------5--------|-----------5--------|-----------5--------|
D|--------4-----4-----|--------4-----4-----|--------4-----4-----|--------4-----4-----|
A|-----5-----------5--|-----5-----------5--|-----5-----------5--|-----5-----------5--|
D|--0-----------------|--0-----------------|--0-----------------|--0-----------------|



E|--------------------|--------------------|--------------------|--------------------|
B|--------------------|--------------------|--------------------|--------------------|
G|-----------3--------|-----------3--------|-----------3--------|-----------3--------|
D|--------2-----2-----|--------2-----2-----|--------2-----2-----|--------2-----2-----|
A|-----3-----------3--|-----3-----------3--|-----3-----------3--|-----3-----------3--|
D|--0-----------------|--0-----------------|--0-----------------|--0-----------------|



E|--------------------|--------------------|--------------------|--------------------|
B|--------------------|--------------------|--------------------|--------------------|
G|-----------5--------|-----------5--------|-----------5--------|-----------5--------|
D|--------4-----4-----|--------4-----4-----|--------4-----4-----|--------4-----4-----|
A|-----5-----------5--|-----5-----------5--|-----5-----------5--|-----5-----------5--|
D|--0-----------------|--0-----------------|--0-----------------|--0-----------------|



E|--------------------|--------------------|--------------------|--------------------|
B|--------------------|--------------------|--------------------|--------------------|
G|-----------3--------|-----------3--------|-----------3--------|--3--------3--------|
D|--------2-----2-----|--------2-----2-----|--------2-----2-----|-----2--------2-----|
A|-----3-----------3--|-----3-----------3--|-----3-----------3--|--------3--------3--|
D|--0-----------------|--0-----------------|--0-----------------|--------------------|



Riff  (I don't see nothing but pain and misery ... )


E|--------------------|--------------------|--------------------|--------------------|
B|--------------------|--------------------|--------------------|--------------------|
G|--------------------|--------------------|--------------------|--------------------|
D|--0--4--4--4--4--4--|--4--1--1--1--1--1--|--0--4--4--4--4--4--|--4--8--8--8--8--8--|
A|--0--4--4--4--4--4--|--4--1--1--1--1--1--|--0--4--4--4--4--4--|--4--6--6--6--6--6--|
D|--0--4--4--4--4--4--|--4--1--1--1--1--1--|--0--4--4--4--4--4--|--4--5--5--5--5--5--|



E|--------------------|--------------------|--------------------|--------------------|
B|--------------------|--------------------|--------------------|--------------------|
G|--------------------|--------------------|--------------------|--------------------|
D|--0--4--4--4--4--4--|--4--8--8--8--8--8--|--0--4--4--4--4--4--|--4--8--8--8--8--8--|
A|--0--4--4--4--4--4--|--4--6--6--6--6--6--|--0--3--3--3--3--3--|--3--6--6--6--6--6--|
D|--0--4--4--4--4--4--|--4--5--5--5--5--5--|--0-----------------|--------------------|



E|--------------------|--------------------|--------------------|--------------------|
B|--------------------|--------------------|--------------------|--------------------|
G|-----------5--------|-----------5--------|-----------5--------|-----------5--------|
D|--------4-----4-----|--------4-----4-----|--------4-----4-----|--------4-----4-----|
A|-----5-----------5--|-----5-----------5--|-----5-----------5--|-----5-----------5--|
D|--0-----------------|--0-----------------|--0-----------------|--0-----------------|



E|--------------------|--------------------|--------------------|--------------------|
B|--------------------|--------------------|--------------------|--------------------|
G|-----------3--------|-----------3--------|-----------3--------|-----------3--------|
D|--------2-----2-----|--------2-----2-----|--------2-----2-----|--------2-----2-----|
A|-----3-----------3--|-----3-----------3--|-----3-----------3--|-----3-----------3--|
D|--0-----------------|--0-----------------|--0-----------------|--0-----------------|



Verse 2  (I'm    wishing and wishing away ... )


E|--------------------|--------------------|--------------------|--------------------|
B|--------------------|--------------------|--------------------|--------------------|
G|-----------5--------|-----------5--------|-----------5--------|-----------5--------|
D|--------4-----4-----|--------4-----4-----|--------4-----4-----|--------4-----4-----|
A|-----5-----------5--|-----5-----------5--|-----5-----------5--|-----5-----------5--|
D|--0-----------------|--0-----------------|--0-----------------|--0-----------------|



E|--------------------|--------------------|--------------------|--------------------|
B|--------------------|--------------------|--------------------|--------------------|
G|-----------3--------|-----------3--------|-----------3--------|-----------3--------|
D|--------2-----2-----|--------2-----2-----|--------2-----2-----|--------2-----2-----|
A|-----3-----------3--|-----3-----------3--|-----3-----------3--|-----3-----------3--|
D|--0-----------------|--0-----------------|--0-----------------|--0-----------------|play 2 times



Riff  (Suddenly I believe ... )


E|--------------------|--------------------|--------------------|--------------------|
B|--------------------|--------------------|--------------------|--------------------|
G|--------------------|--------------------|--------------------|--------------------|
D|--0--4--4--4--4--4--|--4--1--1--1--1--1--|--0--4--4--4--4--4--|--4--8--8--8--8--8--|
A|--0--4--4--4--4--4--|--4--1--1--1--1--1--|--0--4--4--4--4--4--|--4--6--6--6--6--6--|
D|--0--4--4--4--4--4--|--4--1--1--1--1--1--|--0--4--4--4--4--4--|--4--5--5--5--5--5--|



E|--------------------|--------------------|--------------------|--------------------|
B|--------------------|--------------------|--------------------|--------------------|
G|--------------------|--------------------|--------------------|--------------------|
D|--0--4--4--4--4--4--|--4--8--8--8--8--8--|--0--4--4--4--4--4--|--4--8--8--8--8--8--|
A|--0--4--4--4--4--4--|--4--6--6--6--6--6--|--0--3--3--3--3--3--|--3--6--6--6--6--6--|
D|--0--4--4--4--4--4--|--4--5--5--5--5--5--|--0-----------------|--------------------|



Solo

             ^           ^                                         ^
E|-----------9--------|-10-----------9--9--|-----------9--9--9--|-10-----------------|
B|-----------7--------|--7-----------7--7--|-----------7--7--7--|--7-----------------|
G|-----------7--------|--7-----------7--7--|-----------7--7--7--|--7-----------------|
D|--0--0--0-----0--0--|-----0--0--0--------|--0--0--0--0--0--0--|--0--0--0--0--0--0--|
A|--------------------|--------------------|--------------------|--------------------|
D|--------------------|--------------------|--------------------|--------------------|



E|--5-(5)(5)-5--5--5--|--5--5--5--5--6--5--|--------3--3--3--3--|--3--3--3--3--5--3--|
B|-----------6--6--6--|--6--6--6--6--6--6--|-----------4--4--4--|--4--4--4--4--4--4--|
G|-----------7--7--7--|--7--7--7--7--7--7--|-----------3--3--3--|--3--3--3--3--3--3--|
D|--------------------|--------------------|--0--0--------------|--------------------|
A|--------------------|--------------------|--------------------|--------------------|
D|--------------------|--------------------|--------------------|--------------------|


                         ^                                         ^                
E|-----------9--9--9--|-10--------9--9--9--|-----------9--9--9--|-10-----------9--9--|
B|-----------7--7--7--|--7--------7--7--7--|-----------7--7--7--|--7-----------7--7--|
G|-----------7--7--7--|--7--------7--7--7--|-----------7--7--7--|--7-----------7--7--|
D|--0--0--0-----------|--0--0--0-----------|--0--0--0-----------|--0--0--0--0--------|
A|--------------------|--------------------|--------------------|--------------------|
D|--------------------|--------------------|--------------------|--------------------|


 
E|--5--5--5--5--5--5--|--5--5--5--5--6--5--|--3--3--3--3--3--3--|--3--3--3--3--5--3--|
B|-----------6--6--6--|--6--6--6--6--6--6--|-----------4--4--4--|--4--4--4--4--4--4--|
G|-----------7--7--7--|--7--7--7--7--7--7--|-----------3--3--3--|--3--3--3--3--3--3--|
D|--------------------|--------------------|--------------------|--------------------|
A|--------------------|--------------------|--------------------|--------------------|
D|--------------------|--------------------|--------------------|--------------------|



Riff  (Suddenly I believe ... )


E|--------------------|--------------------|--------------------|--------------------|
B|--------------------|--------------------|--------------------|--------------------|
G|--------------------|--------------------|--------------------|--------------------|
D|--0--4--4--4--4--4--|--4--1--1--1--1--1--|--0--4--4--4--4--4--|--4--8--8--8--8--8--|
A|--0--4--4--4--4--4--|--4--1--1--1--1--1--|--0--4--4--4--4--4--|--4--6--6--6--6--6--|
D|--0--4--4--4--4--4--|--4--1--1--1--1--1--|--0--4--4--4--4--4--|--4--5--5--5--5--5--|



E|--------------------|--------------------|--------------------|--------------------|
B|--------------------|--------------------|--------------------|--------------------|
G|--------------------|--------------------|--------------------|--------------------|
D|--0--4--4--4--4--4--|--4--8--8--8--8--8--|--0--4--4--4--4--4--|--4--8--8--8--8--8--|
A|--0--4--4--4--4--4--|--4--6--6--6--6--6--|--0--3--3--3--3--3--|--3--6--6--6--6--6--|
D|--0--4--4--4--4--4--|--4--5--5--5--5--5--|--0-----------------|--------------------|



Outro  (wishing and wishing away ... )


E|---------------------|--------------------|--------------------|--------------------|
B|---------------------|--------------------|--------------------|--------------------|
G|------------5--------|-----------5--------|-----------5--------|-----------5--------|
D|---------4-----4-----|--------4-----4-----|--------4-----4-----|--------4-----4-----|
A|------5-----------5--|-----5-----------5--|-----5-----------5--|-----5-----------5--|
D|---0-----------------|--0-----------------|--0-----------------|--0-----------------|



E|--------------------|--------------------|--------------------|---------------------|
B|--------------------|--------------------|--------------------|---------------------|
G|-----------3--------|-----------3--------|-----------3--------|-----------3---------|
D|--------2-----2-----|--------2-----2-----|--------2-----2-----|--------2-----2------|
A|-----3-----------3--|-----3-----------3--|-----3-----------3--|-----3-----------3---|
D|--0-----------------|--0-----------------|--0-----------------|--0------------------|



E|---------------------|--------------------|
B|---------------------|--------------------|
G|------------5--------|-----------5--------|
D|---------4-----4-----|--------4-----4-----|
A|------5-----------5--|-----5-----------5--|
D|---0-----------------|--0-----------------|



 ^  - brush up
(n) - ghost note
comments
print report bad tab
I want to post or [tab]
guest
You may want to rate the tab now too:
select rating
Please do not post tabs as comments. Select "correction" instead!