Oops, an error
Loading. Please wait.

Harakiri Tab

ver1
ver1

Whole song

More versions @911Tabs.com
9,283 views 42 this week
no commentswrite comment
1 2 3 4 5
not so good
x 1
Autoscroll
+/-
esc
set tempo
stop
Contributor
Difficulty
Tuning
intermediate
C G C F A D
WARNING: You are trying to view
                                    content from Ultimate-Guitar.com
                                    in an unauthorized application,
                                    which is prohibited.

                                    Please use an official Ultimate
                                    Guitar Tabs application for iPhone,
                                    iPad or Android to access legitimate
                                    chords, guitar, bass, and drum tabs
                                    from Ultimate-Guitar.com database.

                                    Type "ultimate guitar tabs" in Apple
                                    App Store's or Android Market's
                                    search to find the application.
Hey UG!

This is a tab for the Serj Tankian's brand new song called Harakiri!

The tuning I believe to be Drop C (DAFCGC).

Tempo is about 140.

Intro:
|---------------------------------|---------------------------------|
|---------------------------------|---------------------------------|
|---------------------------------|---------------------------------|
|---------------------------------|---------------------------------|
|---------------------------------|----------------/3---3---3---3---|
|-5---5---5---5---3---3---3---3---|-1---1---1---1-------------------|

Chorus 1:
||----------------------------------|---------------------------------|
||o---------------------------------|---------------------------------|
||----------------------------------|---------------------------------|
||----------------------------------|-----------------5---5---5---5---|
||o-5---5---5---5---3---3---3---3---|-1---1---1---1---3---3---3---3---|
||--5---5---5---5---3---3---3---3---|-1---1---1---1-------------------|

|---------------------------------|---------------------------------||
|---------------------------------|--------------------------------o||
|---------------------------------|---------------------------------||
|---------------------------------|---------------------------------|| X3
|-5---5---5---5---3---3---3---3---|-1---1---1---1---3---3---3---3--o||
|-5---5---5---5---3---3---3---3---|-1---1---1---1---3---3---3---3---||

|---------------------------------|---------------------------------|
|---------------------------------|---------------------------------|
|---------------------------------|---------------------------------|
|---------------------------------|-----------------5---5---5---5---|
|-5---5---5---5---3---3---3---3---|-1---1---1---1---3---3---3---3---|
|-5---5---5---5---3---3---3---3---|-1---1---1---1-------------------|

|---------------------------------|--------|--------|--------|--------|
|---------------------------------|--------|--------|--------|--------|
|---------------------------------|--------|--------|--------|--------|
|---------------------------------|--------|--------|--------|--------|
|-5---5---5---5---3---3---3---3---|-1------|-(1)----|-3------|-(3)----|
|-5---5---5---5---3---3---3---3---|-1------|-(1)----|-3------|-(3)----|

Verse 1:

|--------|--------|--------|--------|
|--------|--------|--------|--------|
|--------|--------|--------|--------|
|--------|--------|--------|--------|
|--------|--------|--------|--------|
|-5------|-5------|-5------|-5------|

|--------|--------|--------|--------|--------|--------|--------|--------|
|--------|--------|--------|--------|--------|--------|--------|--------|
|--------|--------|--------|--------|--------|--------|--------|--------|
|--------|--------|--------|--------|--------|--------|--------|--------| X 2
|--------|--------|--------|--------|--------|--------|-3------|-3------|
|-5------|-5------|-3------|-3------|-1------|-1------|--------|--------|

|--------|--------|--------|--------|--------|--------|--------|--------|
|--------|--------|--------|--------|--------|--------|--------|--------|
|--------|--------|--------|--------|--------|--------|--------|--------|
|--------|--------|--------|--------|-8------|-5------|--------|--------|
|-8------|-(8)----|-5------|-(5)----|-6------|-3------|-5------|-(5)----|
|-8------|-(8)----|-5------|-(5)----|--------|--------|-5------|-(5)----|

|--------|--------|--------|--------|--------|
|--------|--------|--------|--------|--------|
|--------|--------|--------|--------|--------|
|--------|--------|-8------|-5------|-5------|
|-8------|-(8)----|-6------|-3------|-3------|
|-8------|-(8)----|--------|--------|--------|

Verse 2:

|--------|--------|--------|--------|
|--------|--------|--------|--------|
|--------|--------|--------|--------|
|--------|--------|--------|--------|
|--------|--------|--------|--------|
|-5------|-5------|-5------|-5------|

||------------------|---------------|-----------------|---------------|
||o-----------------|---------------|-----------------|---------------|
||------------------|---------------|-----------------|---------------|
||------------------|---------------|-----------------|---------------|
||o-5-5---5-5-5-5---|-5-5---5-5-5-5-|-3-3---3-3-3-3---|-3-3---3-3-3-3-|
||--5-5---5-5-5-5---|-5-5---5-5-5-5-|-3-3---3-3-3-3---|-3-3---3-3-3-3-|
P.M * *   * * * *     * *   * * * *   * *   * * * *     * *   * * * *

|-----------------|---------------|-----------------|----------------||
|-----------------|---------------|-----------------|---------------o||
|-----------------|---------------|-----------------|----------------||
|-----------------|---------------|-5-5---5-5-5-5---|-5-5---5-5-5-5--|| X2
|-1-1---1-1-1-1---|-1-1---1-1-1-1-|-3-3---3-3-3-3---|-3-3---3-3-3-3-o||
|-1-1---1-1-1-1---|-1-1---1-1-1-1-|-----------------|----------------||
  * *   * * * *     * *   * * * *   * *   * * * *     * *   * * * *

|--------|--------|--------|--------|--------|--------|--------|--------|
|--------|--------|--------|--------|--------|--------|--------|--------|
|--------|--------|--------|--------|--------|--------|--------|--------|
|--------|--------|--------|--------|-8------|-5------|--------|--------|
|-8------|-(8)----|-5------|-(5)----|-6------|-3------|-5------|-(5)----|
|-8------|-(8)----|-5------|-(5)----|--------|--------|-5------|-(5)----|

|--------|--------|--------|--------|--------|
|--------|--------|--------|--------|--------|
|--------|--------|--------|--------|--------|
|--------|--------|-8------|-5------|-5------|
|-8------|-(8)----|-6------|-3------|-3------|
|-8------|-(8)----|--------|--------|--------|

Interlude:

|---------------------------------|---------------------------------|
|---------------------------------|---------------------------------|
|---------------------------------|---------------------------------|
|---------------------------------|---------------------------------| X 4
|---------------------------------|----------------/3---3---3---3---|
|-5---5---5---5---3---3---3---3---|-1---1---1---1-------------------|

Chorus 2:

||----------------------------------|---------------------------------|
||o---------------------------------|---------------------------------|
||----------------------------------|---------------------------------|
||----------------------------------|-----------------5---5---5---5---|
||o-5---5---5---5---3---3---3---3---|-1---1---1---1---3---3---3---3---|
||--5---5---5---5---3---3---3---3---|-1---1---1---1-------------------|

|---------------------------------|---------------------------------||
|---------------------------------|--------------------------------o||
|---------------------------------|---------------------------------||
|---------------------------------|---------------------------------|| X3
|-5---5---5---5---3---3---3---3---|-1---1---1---1---3---3---3---3--o||
|-5---5---5---5---3---3---3---3---|-1---1---1---1---3---3---3---3---||

|---------------------------------|---------------------------------|
|---------------------------------|---------------------------------|
|---------------------------------|---------------------------------|
|---------------------------------|-----------------5---5---5---5---|
|-5---5---5---5---3---3---3---3---|-1---1---1---1---3---3---3---3---|
|-5---5---5---5---3---3---3---3---|-1---1---1---1-------------------|

|---------------------------------|---------------------------------|
|---------------------------------|---------------------------------|
|---------------------------------|---------------------------------|
|---------------------------------|---------------------------------|
|-5---5---5---5---3---3---3---3---|-1---1---1---1---1---1---1---1---|
|-5---5---5---5---3---3---3---3---|-1---1---1---1---1---1---1---1---|

|---------------------------------|---------------------------------|
|---------------------------------|---------------------------------|
|---------------------------------|---------------------------------|
|---------------------------------|---------------------------------|
|-1---1---1---1---1---1---1---1---|-3---3---3---3---3---3---3---3---|
|-1---1---1---1---1---1---1---1---|-3---3---3---3---3---3---3---3---|

|---------------------------------|
|---------------------------------|
|---------------------------------|
|---------------------------------|
|-3---3---------------------------|
|-3---3---(\\\\\\\\\pickslide)----|

Chorus 3:

|---------------------------------|---------------------------------|
|---------------------------------|---------------------------------|
|---------------------------------|---------------------------------|
|---------------------------------|---------------------------------|
|-9---9---9---9---9---9---9---9---|-9---9---9---9---9---9---9---9---|
|-9---9---9---9---9---9---9---9---|-9---9---9---9---9---9---9---9---|

|---------------------------------|---------------------------------|
|---------------------------------|---------------------------------|
|---------------------------------|---------------------------------|
|---------------------------------|---------------------------------|
|-6---6---6---6---6---6---6---6---|-6---6---6---6---6---6---6---6---|
|-6---6---6---6---6---6---6---6---|-6---6---6---6---6---6---6---6---|

|---------------------------------|---------------------------------|
|---------------------------------|---------------------------------|
|---------------------------------|---------------------------------|
|-9---9---9---9---9---9---9---9---|-6---6---6---6---6---6---6---6---|
|-7---7---7---7---7---7---7---7---|-4---4---4---4---4---4---4---4---|
|---------------------------------|---------------------------------|

|---------------------------------|---------------------------------|
|---------------------------------|---------------------------------|
|---------------------------------|---------------------------------|
|---------------------------------|---------------------------------|
|-6---6---6---6---6---6---6---6---|-6---6---6---6---6---6---6---6---|
|-6---6---6---6---6---6---6---6---|-6---6---6---6---6---6---6---6---|

|---------------------------------|---------------------------------|
|---------------------------------|---------------------------------|
|---------------------------------|---------------------------------|
|---------------------------------|---------------------------------|
|-9---9---9---9---9---9---9---9---|-9---9---9---9---9---9---9---9---|
|-9---9---9---9---9---9---9---9---|-9---9---9---9---9---9---9---9---|


|---------------------------------|---------------------------------|
|---------------------------------|---------------------------------|
|---------------------------------|---------------------------------|
|-9---9---9---9---9---9---9---9---|-6---6---6---6---6---6---6---6---|
|-7---7---7---7---7---7---7---7---|-4---4---4---4---4---4---4---4---|
|---------------------------------|---------------------------------|

Chorus 4:

|---------------------------------|---------------------------------|
|---------------------------------|---------------------------------|
|---------------------------------|---------------------------------|
|---------------------------------|---------------------------------|
|-9---9---9---9---9---9---9---9---|-9---9---9---9---9---9---9---9---|
|-9---9---9---9---9---9---9---9---|-9---9---9---9---9---9---9---9---|

|---------------------------------|---------------------------------|
|---------------------------------|---------------------------------|
|---------------------------------|---------------------------------|
|---------------------------------|---------------------------------|
|-6---6---6---6---6---6---6---6---|-6---6---6---6---6---6---6---6---|
|-6---6---6---6---6---6---6---6---|-6---6---6---6---6---6---6---6---|

|---------------------------------|---------------------------------|
|---------------------------------|---------------------------------|
|---------------------------------|---------------------------------|
|-9---9---9---9---9---9---9---9---|-6---6---6---6---6---6---6---6---|
|-7---7---7---7---7---7---7---7---|-4---4---4---4---4---4---4---4---|
|---------------------------------|---------------------------------|

|---------------------------------|---------------------------------|
|---------------------------------|---------------------------------|
|---------------------------------|---------------------------------|
|-9---9---9---9---9---9---9---9---|-6---6---6---6---6---6---6---6---|
|-7---7---7---7---7---7---7---7---|-4---4---4---4---4---4---4---4---|
|---------------------------------|---------------------------------|

|---------------------------------|---------------------------------|
|---------------------------------|---------------------------------|
|---------------------------------|---------------------------------|
|-9---9---9---9---9---9---9---9---|-6---6---6---6---6---6---6---6---|
|-7---7---7---7---7---7---7---7---|-4---4---4---4---4---4---4---4---|
|---------------------------------|---------------------------------|

Outro:

|--------|--------|
|--------|--------|
|--------|--------|
|-6------|--------|
|-4------|-6------|
|--------|-6------|
comments
We did not receive enough feedback on this tab! Please rate:
print report bad tab
1 2 3 4 5
I want to post or [tab]
guest
You may want to rate the tab now too:
select rating
Please do not post tabs as comments. Select "correction" instead!